rock
 
|tablatures   |lyrics   |discussion forums   |more tabs @ XGuitar.com

Smashing Pumpkins tabs

Daydream bass tab

Smashing Pumpkins - Daydream
From the album Gish

Riff 1

G ------------------------------------------------------------------------------|
D ------------------------------------------------------------------------------|
A --4--4--4--4--4--4--4--4--6--6--6--2--2--2--2---------------------------------|
E ----------------------------------------------------5--5--5--5--5--5--5--5--|

G ---------------------------------------------------------------------------------|
D ---------------------------------------------------------------------------------|
A ---------------------------------------------------------------------------------|
E --2--2--2--4--4--4--4--5--5--5--5--5--5--5--5--5--5--5--5--5--5--5--5--5--|

Riff 2

G ----------------------------------------------------------------------------------|
D ----------------------------------------------------------------------------------|
A ----------------------------------------------------------------------------------|
E --0--0--0--0--0--0--0--4--4--4--4--4--4--4--4--5--5--5--5--5--5--5--5--5--|


Riff 1 x2
Riff 2 x1
Riff 1 x2
Riff 2 x1
Riff 1 x2

BriannaJ@magiccarpet.com


Submitted by:  Brianna Jenkins (BriannaJ@magiccarpet.com)
  development and support by
dmitry ivanov