rock
 
|tablatures   |lyrics   |discussion forums   |more tabs @ XGuitar.com

Smashing Pumpkins tabs

Clones (We're All) guitar tab

Song:    Clones (We're All)
 Release: TAFH
 Artist:  The Smashing Pumpkins
 Author:  Roy Stevenson (are_you_done@yahoo.com)
 Tuning:  Eb
 Notes:   Alice Cooper cover

 

drum intro.

guitar verse (distorted):
(steady up and down eighth strokes)

||----------------------------------------------------------------|
||----------------------------------------------------------------|
|o-----------------------------------------------5-5-5-x-x-x-x-x--|
|o-5-5-x-x-x-x-x-5-5-5-x-x-x-x-x-5-5-5-x-x-x-x-x-5-5-5-x-x-x-x-x--|
||-5-5-x-x-x-x-x-5-5-5-x-x-x-x-x-5-5-5-x-x-x-x-x-3-3-3-x-x-x-x-x--|
||-3-3-x-x-x-x-x-3-3-3-x-x-x-x-x-3-3-3-x-x-x-x-x------------------|

|----------------------------------------------------||
|----------------------------------------------------||
|----------------------------------------------------o|
|--2-2-2-x-x-x-x-x-2-2-2-x-x-x-x-x-5-5-5-x-x-x-x-x-5-o|
|--2-2-2-x-x-x-x-x-2-2-2-x-x-x-x-x-5-5-5-x-x-x-x-x-5-||
|--0-0-0-x-x-x-x-x-0-0-0-x-x-x-x-x-3-3-3-x-x-x-x-x-3-||

guitar/synthesizer fill:
(double w/ octaves and other effects)
||----------------------------13-------------------------||
||----------12----13----12----------12----13-----12------||
||o--12--------------------------------------------------o|
||o------------------------------------------------------o|
||-------------------------------------------------------||
||-------------------------------------------------------||

chorus:

||--------------------------------------------------------------------||
||--------------------------------------------------------------------||
|o-5-5-5-5-5-5-5-5-5-7-7-7-7-7-7-7-7----------------------------------o|
|o-5-5-5-5-5-5-5-5-5-7-7-7-7-7-7-7-7--5-5-x-x-x-x-x-5-5-5-x-x-x-x-x-x-o|
||-3-3-3-3-3-3-3-3-3-5-5-5-5-5-5-5-5--5-5-x-x-x-x-x-5-5-5-x-x-x-x-x-x-||
||------------------------------------3-3-x-x-x-x-x-3-3-3-x-x-x-x-x-x-||


bridge:
||-------------------------------------------||
||-------------------------------------------||
|o-------------------------------------------||
|o-------------------------------------------||
||----------------------5--------------------||
||--0---5----6----5-----------5-----6-----6--||

outro:
||--------------------------------------------------------------------||
||--------------------------------------------------------------------||
|o-5-5-5-5-5-5-5-5-5-7-7-7-7-7-7-7-7----------------------------------o|
|o-5-5-5-5-5-5-5-5-5-7-7-7-7-7-7-7-7--5-5-x-x-x-x-x-5-5-5-x-x-x-x-x-x-o|
||-3-3-3-3-3-3-3-3-3-5-5-5-5-5-5-5-5--5-5-x-x-x-x-x-5-5-5-x-x-x-x-x-x-||
||------------------------------------3-3-x-x-x-x-x-3-3-3-x-x-x-x-x-x-||

|--0~~~~~~-------------------------------------------------------------|
|--0~~~~~~-------------------------------------------------------------|
|--0~~~~~~-------------------------------------------------------------|
|--2~~~~~~-------------------------------------------------------------|
|--2~~~~~~-------------------------------------------------------------|
|--0~~~~~~-------------------------------------------------------------|
  development and support by
dmitry ivanov