rock
 
|tablatures   |lyrics   |discussion forums   |more tabs @ XGuitar.com

Smashing Pumpkins tabs

Blue Skies Bring Tears guitar tab

X===============================PLEASE NOTE==============================X
X  This tab is all my own and represents my interpretation of the song.  X
X You may only use this tab for private study, scholarship, or research. X
X  Do not change, deface, mutilate, or in any other way alter this tab.  X
X   You must email me first if you want to use this tab on your site.    X
X========================================================================X


*Blue Skies Bring Tears*
Transcribed by Obscured@san.rr.com
Http://home.san.rr.com/obscured


Tuning: E A D G B E


VERSE

Its pretty much just synth but you can chug on an Am chord

 Lead
|-20--20--------------------|
|-----------17--20----------|
|---------------------17----|
|---------------------------|
|---------------------------|
|---------------------------|

A few bars into the verse hit this with distortion
|----------|
|----------|
|-2--------|
|-2--------|
|-0--------|
|----------|


CHORUS - Synth arranged for guitar

                   x2
|-1----1----0--------|
|-1----3----1--------|
|-2----2----2--------|
|-3----0----2--------|
|-3---------0--------|
|-1------------------|

|-1----1----3--------|
|-1----3----3--------|
|-2----2----3--------|
|-3----0----5--------|
|-3---------5--------|
|-1---------3--------|


VERSE 2 - Back to the Am

A few bars into the verse hit this with distortion
|----------|
|----------|
|-2--------|
|-2--------|
|-0--------|
|----------|


CHORUS 2 - Synth arranged for guitar

                   x2
|-1----1----0--------|
|-1----3----1--------|
|-2----2----2--------|
|-3----0----2--------|
|-3---------0--------|
|-1------------------|

|-1----1----3--------|
|-1----3----3--------|
|-2----2----3--------|
|-3----0----5--------|
|-3---------5--------|
|-1---------3--------|


INTERLUDE
|-1----------------0--------1--------|
|-3----------------1--------3--------|
|-2----------------2--------2--------|
|-0----------------2--------0--------|
|------------------0-----------------|
|------------------------------------|


OUTRO

Hit this at the start of the outro and keep hitting it throughout
|----------|
|----------|
|-2--------|
|-2--------|
|-0--------|
|----------|
  development and support by
dmitry ivanov