rock
 
|tablatures   |lyrics   |discussion forums   |more tabs @ XGuitar.com

Smashing Pumpkins tabs

Blew Away bass tab

Title: Blew Away
Artist: The Smashing Pumpkins
Tuning: E A D G

Riff1
G|--------------------------------|
D|---------------6----------------|
A|4-------4--4h6h-------------4h7-|
E|----4------------4---7--4h7h----|

Riff2
G|----------------------------------------|
D|----------------------------------------|
A|--------------------2--2--2-2-4--4--4-4-|
E|2--2--2-2-4--4--4-4---------------------|

Play Riff 2 for a while.

When it gets quiet play:

Riff3
G|----------------|
D|----------------|
A|----1-------2---|
E|2-------4-------|

After playing Riff3 a few times play 
Riff1, Riff2, Riff3, Riff1 (even when
the distorted guitar comes in, play
some variations), and Riff2, end on F#. 


-------------------------------------------
These Bass Tabs can also be found at: 
http://members.tripod.com/~spbass/main.htm
Keith Slagerman : Email MayonaiseX@aol.com
  development and support by
dmitry ivanov