rock
 
|tablatures   |lyrics   |discussion forums   |more tabs @ XGuitar.com

Smashing Pumpkins tabs

Blank Page bass tab

ARTIST: The Smashing Pumpkins
SONG: Blank Page
ALBUM: Adore
AUTHOR: Billy Corgan
PUBLISHER: (c) 1998 Chrysalis Songs/Cinderful Music (BMI)
TUNING: E A D G


Not only is the bass hard to make out through the low piano
notes, Blank Page has an odd structure and time signature.
Just follow along and you should be alright.  Skip the opening 
chorus and enter on the word "dressed."


Got dressed, drove the state line
G|------------------------------------------------------------------
D|------------------------------------------------------------------
A|----------5---------------3-------7-------5-----------------------
E|--0---------------5-------------------------------5-------3-------

                           Blank Page was all the rage
  ------------------------|-----------------------------------------
  ------------------------|-----------------------------------------
  ----------5-------------|---------5---------------3-------7-------
  --5---------------5-----|-3---------------5-----------------------

  ------------------------------------------------------------------|
  ------------------------------------------------------------------|
  --5---------------3-----------------------5-----------------------|
  ----------5---------------3-------0---------------5-------0-------|

You haven't changed
  ------------------------------------------------------------------
  ------------------------------------------------------------------
  --3-----------------------5---------------5---------------5-------
  ----------0-------5---------------5---------------3---------------

                                   You were easy
  --------------------------------|---------------------------------
  --------------------------------|---------------------------------
  ----------3---------------5-----|-3-----------------------5-------
  --5---------------0-------------|---------0-------5---------------

  ------------------------------------------------------------------|
  ------------------------------------------------------------------|
  ----------------------------------5---------------3-------7-------|
  --5-------3-------5-------0---------------5-----------------------|

I catch the rainfall
  ------------------------------------------------------------------
  ------------------------------------------------------------------
  --5-------------------------------5-----------------------5-------
  ----------5-------3-------5---------------5-------3---------------

  ------------------------------------------------|
  ------------------------------------------------|
  ----------3-------7-------5---------------------|
  --5-------------------------------5-------0-----|

The rain falls
  ------------------------------------------------------------------|
  ------------------------------------------------------------------|
  ----------3-----------------------5-------------------------------|
  --5---------------3-------0---------------5-------3---------------|

Blank Page was all the rage
  ------------------------------------------------------------------
  ------------------------------------------------------------------
  ----------5---------------3-------7-------5---------------3-------
  --3---------------5-------------------------------5---------------

                                   Got dressed
  --------------------------------|---------------------------------
  --------------------------------|---------------------------------
  ------------------5-------------|-3-----------------------5-------
  --3-------0---------------5-----|---------0-------5---------------

  ------------------------------------------------------------------
  ------------------------------------------------------------------
  ----------5---------------5---------------3---------------5-------
  --5---------------3---------------5---------------0--------------- 

                   You are a ghost                            (fade)
  ----------------|-------------------------------------------------
  ----------------|-------------------------------------------------
  ----------------|-3-----------------------5-----------------------
  --5-------------|---------0-------5---------------5-------3-------


     Transcribed by: Jesse Miller  <mije9801@stcloudstate.edu>
     This is my own work.  Rip me off and you will die.
  development and support by
dmitry ivanov