rock
 
|tablatures   |lyrics   |discussion forums   |more tabs @ XGuitar.com

Smashing Pumpkins tabs

Blank guitar tab

Song:    Blank
 Release: 1797 single,TAFH
 Artist:  The Smashing Pumpkins
Author:  Roy Stevenson (are_you_done@yahoo.com)
 Tuning:  Eb
 Notes:   acoustic





Verse

|---------------------------------------------------------
|-------------------------0-------------------------------
|-------------4-------2-----2---2-------------------------
|-----4---------6---2---------2---------------------------
|---4-------6-----0-----0---------------------------------
|-2-----2-4-----------------------------------------------

Chorus

|------------------------------------------------------------------
|------------------------------------------0---------------0-------
|----------2-----------4-----4---------2-----2---2-----2-----2---2-
|-----4------4---4-------------------2---------2-----2---------2---
|---4----------4-----6-----6-----6-0-----0---------0-----0---------
|-2-----2----------4-----4-----4-----------------------------------
  development and support by
dmitry ivanov