rock
 
|tablatures   |lyrics   |discussion forums   |more tabs @ XGuitar.com

Smashing Pumpkins tabs

Age Of Innocence guitar tab

X===============================PLEASE NOTE==============================X
X  This tab is all my own and represents my interpretation of the song.  X
X You may only use this tab for private study, scholarship, or research. X
X  Do not change, deface, mutilate, or in any other way alter this tab.  X
X   You must email me first if you want to use this tab on your site.    X
X========================================================================X


*Age of Innocence*
Transcribed by Obscured@san.rr.com
Http://home.san.rr.com/obscured


Tuning: Eb Ab Db Gb Bb Eb


INTRO - Fade in...
                    x4
|-0----0----0----0----|
|-3----3----3----3----|
|-0----2----0----0----|
|-2----2----2----2----|
|-3----0----2----2----|
|-----------0----0----|


VERSE
                    x8
|-0----0----0----0----|
|-3----3----3----3----|
|-0----2----0----0----|
|-2----2----2----2----|
|-3----0----2----2----|
|-----------0----0----|


PRECHORUS
                    x2
|------0----0----0----|
|-6----3----3----3----|
|-0----0----0----2----|
|-5----2----2----0----|
|-6----3----2---------|
|-----------0---------|


CHORUS
                    x8
|-0----0----0----0----|
|-3----3----3----3----|
|-0----2----0----0----|
|-2----2----2----2----|
|-3----0----2----2----|
|-----------0----0----|


VERSE 2
                   x10
|-0----0----0----0----|
|-3----3----3----3----|
|-0----2----0----0----|
|-2----2----2----2----|
|-3----0----2----2----|
|-----------0----0----|


PRECHORUS 2
                    x2
|------0----0----0----|
|-6----3----3----3----|
|-0----0----0----2----|
|-5----2----2----0----|
|-6----3----2---------|
|-----------0---------|


CHORUS 2
                    x8
|-0----0----0----0----|
|-3----3----3----3----|
|-0----2----0----0----|
|-2----2----2----2----|
|-3----0----2----2----|
|-----------0----0----|


INTERLUDE
                                  x3
|------------------0----------------|
|-------0-------------0-------------|
|-----0----------2-------------0----|
|---2----------2-------------2------|
|-3----------0-------------2--------|
|------------------------0----------|

|------------------0----------------------0----|
|-------0-------------0-----------------3------|
|-----0----------2-------------0------2--------|
|---2----------2-------------2------0----------|
|-3----------0-------------2-------------------|
|------------------------0---------------------|

|------------------0------------------------|
|-------0-------------0---------------------|
|-----0----------2-------------0------------|
|---2----------2-------------2--------------|
|-3----------0-------------2----------------|
|------------------------0------------------|

 Guitar 1                         x2
|------------------0----------------|
|-------0-------------0-------------|
|-----0----------2-------------0----|
|---2----------2-------------2------|
|-3----------0-------------2--------|
|------------------------0----------|
|Guitar 2 - With distortion       x2
|-----------------------------------|
|-----------------------------------|
|-5----------2-----------9----------|
|-5----------2-----------9----------|
|-3----------0-----------7----------|
|-----------------------------------|

 Guitar 1
|------------------0----------------------0----|
|-------0-------------0-----------------3------|
|-----0----------2-------------0------2--------|
|---2----------2-------------2------0----------|
|-3----------0-------------2-------------------|
|------------------------0---------------------|
|Guitar 2
|----------------------------------------------|
|----------------------------------------------|
|-5----------2-----------9----------7----------|
|-5----------2-----------9----------7----------|
|-3----------0-----------7----------5----------|
|----------------------------------------------|

 Guitar 1
|------------------0------------------------|
|-------0-------------0---------------------|
|-----0----------2-------------0------------|
|---2----------2-------------2--------------|
|-3----------0-------------2----------------|
|------------------------0------------------|
|Guitar 2
|-------------------------------------------|
|-------------------------------------------|
|-5----------2-----------9----------9-------|
|-5----------2-----------9----------9-------|
|-3----------0-----------7----------7-------|
|-------------------------------------------|


CHORUS 3
                                        x2
|-0----0----0----0----3----3----0----0----|
|-3----3----3----3----3----3----3----3----|
|-0----2----0----0----0----0----0----0----|
|-2----2----2----2----0----0----2----2----|
|-3----0----2----2----2----2----3----3----|
|-----------0----0----3----3--------------|

|-0----0----0----0----3----3----0----0----|
|-3----3----3----3----3----3----3----3----|
|-2----2----0----0----0----0----0----0----|
|-2----2----2----2----0----0----2----2----|
|-0----0----2----2----2----2----3----3----|
|-----------0----0----3----3--------------|

End on
|-0----0----0----0----3----3----0--------|
|-3----3----3----3----3----3----0--------|
|-0----2----0----0----0----0----0--------|
|-2----2----2----2----0----0----2--------|
|-3----0----2----2----2----2----3--------|
|-----------0----0----3----3-------------|
  development and support by
dmitry ivanov