rock
 
|tablatures   |lyrics   |discussion forums   |more tabs @ XGuitar.com

Slayer tabs

Wicked guitar tab

SLAYER 
                            *Wicked* 
                    From Diabolus In Musica 
 
             Tabbed by: David Lichter (lichter@swipnet.se) 
      Lichter's Slayer Page: http://members.tripod.com/~slaypage/ 
        The Ultimate Slayer Fan Site: http://www.slayerized.com 
 
This tab is not 100% correct, so if you see any wrongs, mail me! 
 
 
Tuning: C# Ab Db Gb Bb Eb 
 
Pm = Palm Mute 
 
 
Intro (with a little distorsion): 
Eb|------------------------------------------| 
Bb|------------------------------------------| 
Gb|------------------------------------------| 
Db|------------------------------------------| 
Ab|-----0-0--------------0-0------6-5--------| 
C#|--0-------6---2----0-------6--------------| 
 
Eb|------------------------------------------| 
Bb|------------------------------------------| 
Gb|------------------------------------------| 
Db|------------------------------------------| 
Ab|-----0-0--------------0-0------3--5-6-5---| 
C#|--0-------6---2----0-------6--------------| 
 
                          2 times 
Eb|------------------|------------------------| 
Bb|------------------|------------------------| 
Gb|------------------|-------------6-5--------| 
Db|------------------|-----------------6-5----| 
Ab|-----0-0----------|----0-0---------------6-| 
C#|--0-------6---2---|-0-------6--------------| 
 
Both guitars: 9x 
Eb|------------------------------------------| 
Bb|------------------------------------------| 
Gb|------------------------------------------| 
Db|-----------------------3--2---6-----------| 
Ab|-----------------------3--2---6-----------| 
C#|--0--1--3--1--0--1--0--3--2---6-----------| 
   Pm......................... 
 
 then this 
Eb|------------------------| 
Bb|------------------------| 
Gb|------------------------| 
Db|--0-0-0-0-0-0-0-0-0-----| 
Ab|--0-0-0-0-0-0-0-0-0-----| 
C#|--0-0-0-0-0-0-0-0-0-----| 
   Pm................. 
 
     Cataract blinding your eyes... 
Eb|-------------------------------------| 
Bb|-------------------------------------| 
Gb|-------------------------------------| 
Db|--0--0--0--0--0--0--0--0--0--0--0----| 
Ab|--0--0--0--0--0--0--0--0--0--0--0----| 
C#|--0--0--0--0--0--0--0--0--0--0--0----| 
   Pm............................... 
 
 
Eb|-------------------------------------| 
Bb|-------------------------------------| 
Gb|-------------------------------------| 
Db|------------------------8-8-7--------| 
Ab|------0-0-0-----5-5-4----------------| 
C#|--0----------6-----------------------| 
  
                          The wicked will feed the chaos... 
Eb|---------------------------------------------------------|----------| 
Bb|---------------------------------------------------------|----------| 
Gb|---------------------------------------------------------|----------| 
Db|--------------------1--0--0--0--0--0--0--0--0--0-0--1--0-|-1--0--7--| 
Ab|--------------------1--0--0--0--0--0--0--0--0--0-0--1--0-|-1--0--7--| 
C#|--0--1--3--1--0--1--1--0--0--0--0--0--0--0--0--0-0--1--0-|-1--0--7--| 
   Pm................     .  .  .  .  .  .  .  .  . .     .      . 
 
    Death's head shattering... 
Eb|-----------------------------------| 
Bb|-----------------------------------| 
Gb|-----------------------------------| 
Db|------------------------8-8-7------| 
Ab|------0-0-0-----5-5-4--------------| 
C#|--0----------6---------------------| 
 
   ...blow to the throat... 
Eb|-------------------------------| 
Bb|-------------------------------| 
Gb|-------------------------------| 
Db|-------------------------------| 
Ab|-------------------------------| 
C#|--0-0-0-0-0-0-0-0-0-0-0-0-0-0--| 
   Pm........................... 
 
Eb|------------------------------------------| 
Bb|------------------------------------------| 
Gb|------------------------------------------| 
Db|------------------------------------------| 
Ab|-----0-0--------------0-0------6-5--------| 
C#|--0-------6---2----0-------6--------------| 
 
Eb|------------------------------------------| 
Bb|------------------------------------------| 
Gb|------------------------------------------| 
Db|------------------------------------------| 
Ab|-----0-0--------------0-0------3--5-6-5---| 
C#|--0-------6---2----0-------6--------------| 
 
                          2 times 
Eb|------------------|------------------------| 
Bb|------------------|------------------------| 
Gb|------------------|-------------6-5--------| 
Db|------------------|-----------------6-5----| 
Ab|-----0-0----------|----0-0---------------6-| 
C#|--0-------6---2---|-0-------6--------------| 
 
                       The wicked will feed the chaos... 
Eb|---------------------------------------------------------|----------| 
Bb|---------------------------------------------------------|----------| 
Gb|---------------------------------------------------------|----------| 
Db|--------------------1--0--0--0--0--0--0--0--0--0-0--1--0-|-1--0--7--| 
Ab|--------------------1--0--0--0--0--0--0--0--0--0-0--1--0-|-1--0--7--| 
C#|--0--1--3--1--0--1--1--0--0--0--0--0--0--0--0--0-0--1--0-|-1--0--7--| 
   Pm................     .  .  .  .  .  .  .  .  . .     .      . 
 
 
Play this under the solo: 
                        
Eb|---------------------------|-------------| 
Bb|---------------------------|-------------| 
Gb|---------------------------|-------------| 
Db|1----------------------1---|-1-------7--| 
Ab|1----------------------1---|-1-------7--| 
C#|1--0-0-0-0-0-0-0-0-0-0-1-0-|-1--0-0--7--| 
    Pm...................   .      . . 
 
    2x 
Eb|-------------------------------------| 
Bb|-------------------------------------| 
Gb|-------------------------------------| 
Db|------------------------8-8-9-7------| 
Ab|------0-0-0-----5-5-5-4--------------| 
C#|--0----------6-----------------------| 
 
  Era of total destruction has slowly begun... 
Eb|----------------------------------------------| 
Bb|----------------------------------------------| 
Gb|----------------------------------------------| 
Db|--1--1--1--1--1--1--1--1--1--4--3--0----------| 
Ab|--1--1--1--1--1--1--1--1--1--4--3--0----------| 
C#|--1--1--1--1--1--1--1--1--1--4--3--0----------| 
   Pm............................... 
 
      
Eb|-------------------------------------| 
Bb|-------------------------------------| 
Gb|-------------------------------------| 
Db|------------------------8-8-9-7------| 
Ab|------0-0-0-----5-5-5-4--------------| 
C#|--0----------6-----------------------| 
 
  Order out of chaos the true will of the beast... 
Eb|----------------------------------------------| 
Bb|----------------------------------------------| 
Gb|----------------------------------------------| 
Db|--1--1--1--1--1--1--1--1--1--4--3--0----------| 
Ab|--1--1--1--1--1--1--1--1--1--4--3--0----------| 
C#|--1--1--1--1--1--1--1--1--1--4--3--0----------| 
   Pm............................... 
 
Eb|-------------------------------------| 
Bb|-------------------------------------| 
Gb|-------------------------------------| 
Db|------------------------8-8-9-7------| 
Ab|------0-0-0-----5-5-5-4--------------| 
C#|--0----------6-----------------------| 
 
     Ten bleeding hearts... 
Eb|-----------------------------| 
Bb|-----------------------------| 
Gb|-----------------------------| 
Db|---7--3--2--1-1-1------------| 
Ab|---7--3--2--1-1-1------------| 
C#|---7--3--2--1-1-1------------| 
   Pm          ..... 
 
   Era of total destruction has never resist... 
Eb|----------------------------------------------| 
Bb|----------------------------------------------| 
Gb|----------------------------------------------| 
Db|--1--1--1--1--1--1--1--1--1--4--3--0----------| 
Ab|--1--1--1--1--1--1--1--1--1--4--3--0----------| 
C#|--1--1--1--1--1--1--1--1--1--4--3--0----------| 
   Pm............................... 
 
Eb|-------------------------------------| 
Bb|-------------------------------------| 
Gb|-------------------------------------| 
Db|------------------------8-8-9-7------| 
Ab|------0-0-0-----5-5-5-4--------------| 
C#|--0----------6-----------------------| 
 
  Order out of chaos the true will of the beast...  
Eb|----------------------------------------------| 
Bb|----------------------------------------------| 
Gb|----------------------------------------------| 
Db|--1--1--1--1--1--1--1--1--1--4--3--0----------| 
Ab|--1--1--1--1--1--1--1--1--1--4--3--0----------| 
C#|--1--1--1--1--1--1--1--1--1--4--3--0----------| 
   Pm............................... 
 
 
Eb|-------------------------------------| 
Bb|-------------------------------------| 
Gb|-------------------------------------| 
Db|------------------------8-8-9-7------| 
Ab|------0-0-0-----5-5-5-4--------------| 
C#|--0----------6-----------------------| 
 
 
     Ten bleeding hearts... 
Eb|-----------------------------| 
Bb|-----------------------------| 
Gb|-----------------------------| 
Db|---7--3--2--1-1-1------------| 
Ab|---7--3--2--1-1-1------------| 
C#|---7--3--2--1-1-1------------| 
   Pm          ..... 
 
Eb|-----------------------------| 
Bb|-----------------------------| 
Gb|-----------------------------| 
Db|--3-3-3--6-6-6--9-9-9--------| 
Ab|--3-3-3--6-6-6--9-9-9--------| 
C#|--3-3-3--6-6-6--9-9-9--------| 
 
     Famine, plagues, war and death... 
Eb|----------------------------------------------| 
Bb|----------------------------------------------| 
Gb|----------------------------------------------| 
Db|--1--1--1--1--1--1--1--1--1--4--3--0----------| 
Ab|--1--1--1--1--1--1--1--1--1--4--3--0----------| 
C#|--1--1--1--1--1--1--1--1--1--4--3--0----------| 
   Pm............................... 
 
 
Eb|-------------------------------------| 
Bb|-------------------------------------| 
Gb|-------------------------------------| 
Db|------------------------8-8-9-7------| 
Ab|------0-0-0-----5-5-5-4--------------| 
C#|--0----------6-----------------------| 
 
 
     Ten bleeding hearts... 
Eb|-----------------------------| 
Bb|-----------------------------| 
Gb|-----------------------------| 
Db|---7--3--2--1-1-1------------| 
Ab|---7--3--2--1-1-1------------| 
C#|---7--3--2--1-1-1------------| 
   Pm          ..... 
 
 
End 
 
 
Any comments, questions, corrections, please e-mail me at: lichter@swipnet.se 
 
 
 
 
 
 
 
 
 
 
 
 
 
 
 
 
 
 
 
 
 
 
 
 
 
 
 
 
wicked (solo) 
album: diabolus in musica 
slayer 
 
transcribed by Rudy Guzman 
 
solo 1 
eb:----------------------------------------------------------------------------------------| 
Bb:----------------------------------------------------------------------------4b-4b-4b-4b-| 
Gb:----------------------------------------------3/5-4~~~~---------------------3b-3b-3b-3b-| 
Db:-445555555-4455-77p5p4--2-5~~~~-~~-~~--445754------------4457p5p4-2-5~~~-~--------------| 
Ab:----------------------------------------------------------------------------------------| 
Db:----------------------------------------------------------------------------------------| 
 
 
solo 2 
:-------------------------------------------------------------------------------------| 
:-------------------------------------------------------------------------------------| 
:-----------------9-10-11/15\11-10--11-12-14-12-11-12-11-12--9-10-12-10-11-12-14-12-11| 
:----------8-9-11---------------------------------------------------------------------| 
:---7-9/10----------------------------------------------------------------------------| 
:10-----------------------------------------------------------------------------------| 
 
 
:-----------------------------------| 
:----12b~~~-~~~--16-17-19-17-16-----| 
:9-7----------------------------19\-| 
:-----------------------------------| 
:-----------------------------------| 
:-----------------------------------| 
 
 
 
:------------------------------------------------21b~~~-24b-----| 
:--------------------------------13b-15b-17b-19b------------20\-| 
:7/9-999-888-9/12-1212-11-11-11--12b-14b-17b-18b----------------| 
:---------------------------------------------------------------| 
:---------------------------------------------------------------| 
:---------------------------------------------------------------| 
 
 
 
:171415141517etc-141514------------------------------------------------------------| 
:-----------------------181516181615-141517-151715-141514--------------------------| 
:---------------------------------------------------------161719171617151213151317-| 
:----------------------------------------------------------------------------------| 
:----------------------------------------------------------------------------------| 
:----------------------------------------------------------------------------------| 
 
 
 
:-------------------------------------------| 
:-------------------------------------------| 
:-1310-11-13-11-----------------------------| 
:---------------151213151312-14~~~-13~~-----| 
:---------------------------------------14\-| 
:-------------------------------------------|
  development and support by
dmitry ivanov