rock
 
|tablatures   |lyrics   |discussion forums   |more tabs @ XGuitar.com

Slayer tabs

War Zone guitar tab

War Zone
  By SLAYER
  As Performed On God Hates Us All 2001

  Tabbed By Ema

  Tuning Bb 7 String Guitar King & Eb Hanneman


 RIFF 1 INTRO

 Guitar 1 King
|----------------------||---------------------|
|----------------------||---------------------|
|----------------------||---------------------|
|----------------------||---------------------|
|----------------------||---------------6--5--|
|----------------------||---------------6--5--|
|-00000000000000000000-||-000000000000--4--3--|
  ....................    ............


 Guitar 2 Hanneman
|----------------------||---------------------|
|----------------------||---------------------|
|----------------------||---------------------|
|----------------------||---------------8--7--|
|-5-4-3--5-4-3--5-4-3--||-5-4-3--5-4-3--8--7--|
|-3-2-1--3-2-1--3-2-1--||-3-2-1--3-2-1--6--5--|




 RIFF 2 INTRO
King
|x3                       |
|-------------------------|------------------------|
|-------------------------|------------------------|
|-------------------------|------------------------|
|-------------------------|------------------------|
|-------------------------|---------------------3--|
|-------------------------|---------------------3--|
|-0-6-5-0-5-4-0-4-3-0-3-2-|-0-6-5-0-5-4-0-4-3-0-1--|
  . . . . . . . . . . . .   . . . . . . . . . .

Hanneman
|x3
|-------------------------|------------------------|
|-------------------------|------------------------|
|-------------------------|------------------------|
|-------------------------|---------------------5--|
|---3-2---2-1---1-0-------|---3-2---2-1---1-0---5--|
|-2-----2-----2-----2-5-4-|-2-----2-----2-----2-3--|
  . . . . . . . . . . . .   . . . . . . . . . .



 RIFF 3 INTRO
King
|---------------------------------------------------------|---------------------------------------------------------------|
|---------------------------------------------------------|---------------------------------------------------------------|
|---------------------------------------------------------|---------------------------------------------------------------|
|---------------------------------------------------------|---------------------------------------------------------------|
|-5-4-3--5-4-3--5-4-3--5-4-3--5-4-3--5-4-3--5-4-3--8-7-6--|-5-4-3--5-4-3--5-4-3--5-4-3--5-4-3--5-4-3--5-4-3--5-4-3--8--7--|
|-3-2-1--3-2-1--3-2-1--3-2-1--3-2-1--3-2-1--3-2-1--6-5-4--|-3-2-1--3-2-1--3-2-1--3-2-1--3-2-1--3-2-1--3-2-1--3-2-1--6--5--|
|---------------------------------------------------------|---------------------------------------------------------------|


Hanneman
|---------------------------------------------------------|---------------------------------------------------------------|
|---------------------------------------------------------|---------------------------------------------------------------|
|---------------------------------------------------------|---------------------------------------------------------------|
|---------------------------------------------------------|---------------------------------------------------------------|
|-5-4-3--5-4-3--5-4-3--5-4-3--5-4-3--5-4-3--5-4-3--8-7-6--|-5-4-3--5-4-3--5-4-3--5-4-3--5-4-3--5-4-3--5-4-3--5-4-3--8--7--|
|-3-2-1--3-2-1--3-2-1--3-2-1--3-2-1--3-2-1--3-2-1--6-5-4--|-3-2-1--3-2-1--3-2-1--3-2-1--3-2-1--3-2-1--3-2-1--3-2-1--6--5--|


 RIFF 2 LAST PART AS BREAK


 RIFF 4 VERSE
King
|--------------------------------|
|--------------------------------|
|--------------------------------|
|--------------------------------|
|--------------------------------|
|-2-3-2-2-2-2-2-2-2-3-2-2-5-2-3--|
|-0-1-0-0-0-0-0-0-0-1-0-0-3-0-1--|
      . . . . . . .   . .   .

Hanneman
|--------------------------------|
|--------------------------------|
|--------------------------------|
|--------------------------------|
|-4-5-4-4-4-4-4-4-4-5-4-4-7-4-5--|
|-2-3-2-2-2-2-2-2-2-3-2-2-5-2-3--|
      . . . . . . .   . .   .


 RIFF 5 PRE-CHORUS
King
|---------------------------------------------------------------|
|---------------------------------------------------------------|
|---------------------------------------------------------------|
|---------------------------------------------------------------|
|---------------------------------------------------------------|
|-2-3-2-2-2-2----2-3-2-2-2-2----2-3-2-2-2-2----2-3-2-2-5-2-3----|
|-0-1-0-0-0-0----0-1-0-0-0-0----0-1-0-0-0-0----0-1-0-0-3-0-1----|


Hanneman
|---------------------------------------------------------------|
|---------------------------------------------------------------|
|---------------------------------------------------------------|
|---------------------------------------------------------------|
|-4-5-4-4-4-4----4-5-4-4-4-4----4-5-4-4-4-4----4-5-4-4-7-4-5----|
|-2-3-2-2-2-2----2-3-2-2-2-2----2-3-2-2-2-2----2-3-2-2-5-2-3----|



 RIFF 1 CHORUS

 RIFF 3 POST CHORUS

 RIFF 2


 RIFF 6 VERSE 2
King
|---------------------------------|---------------------------------|
|---------------------------------|---------------------------------|
|---------------------------------|---------------------------------|
|---------------------------------|---------------------------------|
|---------------------------------|---------------------------------|
|-2-3-2-2-2-2----2-3-2-2-5-2-3----|-2-3-2-2-2-2----2-3-2-2-5-2-3----|
|-0-1-0-0-0-0----0-1-0-0-3-0-1----|-0-1-0-0-0-0----0-1-0-0-3-0-1----|


Hanneman
|---------------------------------|---------------------------------|
|---------------------------------|---------------------------------|
|---------------------------------|---------------------------------|
|---------------------------------|---------------------------------|
|-4-5-4-4-4-4----4-5-4-4-7-4-5----|-4-5-4-4-4-4----4-5-4-4-7-4-5----|
|-2-3-2-2-2-2----2-3-2-2-5-2-3----|-2-3-2-2-2-2----2-3-2-2-5-2-3----|


 RIFF 5 PRE-CHORUS

 RIFF 2 PRE-CHORUS

 RIFF 1 CHORUS

 RIFF 3 POST CHORUS

 RIFF 7 OUTRO
King
|--------------|
|--------------|
|--------------|
|--------------|
|--------------|
|-2-3-2-2-2----|
|-0-1-0-0-0----|


Hanneman
|--------------|
|--------------|
|--------------|
|--------------|
|-4-5-4-4-4----|
|-2-3-2-2-2----|
  development and support by
dmitry ivanov