rock
 
|tablatures   |lyrics   |discussion forums   |more tabs @ XGuitar.com

Slayer tabs

War Zone bass tab

War Zone
Slayer
God Hates Us All
tabbed by martyr
Tuning: Standard down 1/2 step (Eb Ab Db Gb Bb Eb)

Intro
Riff A x2
Chorus B x2
Riff B x1
Verse A x4
Verse B x2
Chorus A x2
Chorus B x2
Riff A x1
Verse C x4
Verse B x2
Riff A x2
Chorus A x2
Chorus B x2
Outro

INTRO
|------------||----------||---------|
|------------||----------||---------|
|------------||----------||---------|
|7-6-5-7-6-5-||7-6-5-----||10---9---|

RIFF A
|------------------||------||------|
|------------------||------||------|
|------------------||------||------|
|0-6-5-0-5-4-0-4-3-||0-3-2-||0-1---|

RIFF B
|------------------------|
|------------------------|
|------------------------|
|0-6-5-0-5-4-0-4-3-0-3-2-|


CHORUS A
|------------||----------||----------|
|------------||----------||----------|
|------------||----------||----------|
|7-6-5-7-6-5-||7-6-5-----||10----9---|

CHORUS B
|------------------------------------||----------------||----------|
|------------------------------------||----------------||----------|
|------------------------------------||----------------||----------|
|7-6-5-7-6-5-7-6-5-7-6-5-7-6-5-7-6-5-||7-6-5-10--9--8--||10----9---|

VERSE A
|--------------------------------|
|--------------------------------|
|--------------------------------|
|0-1-0-0-0-0-0-0-0-1-0-0-3-0-1---|

VERSE B
|----------------------------------------------------------------|
|----------------------------------------------------------------|
|----------------------------------------------------------------|
|0-1-0-0-0-0-----0-1-0-0-0-0-----0-1-0-0-0-0-----0-1-0-0-3-0-1---|

VERSE C
|--------------------------------|
|--------------------------------|
|--------------------------------|
|0-1-0-0---------0-1-0-0-3-0-1---|

OUTRO
|----------------------------------------------------------------|x2
|----------------------------------------------------------------|
|----------------------------------------------------------------|
|0-1-0-0-0-0-----0-1-0-0-0-0-----0-1-0-0-0-0-----0-1-0-0-0-0-----|
  development and support by
dmitry ivanov