rock
 
|tablatures   |lyrics   |discussion forums   |more tabs @ XGuitar.com

Slayer tabs

Verbal Abuse / Leeches guitar tab

VERBAL ABUSE/LEECHES 
Written by Eric Mastrokolas, Brett Dodwell and Roy Hansen. 
Performed by SLAYER. 
Taken from the album UNDISPUTED ATTITUDE. 
 
Transcribed by Oskar "The Seventh Son" Wigren. 
E-mail me at wigren@skelleftea.mail.telia.com 
 
Riff 1: 
E-----------------------------------------------| 
B-----------------------------------------------| 
G-----------------------------------------------| 
D-----7--5--4-----------------------------------| 
A--7--5--3--2-----------------------------------| 
E--5-----------5-5-5-5-5-5-5-3-5-5-5-5-5-5-5-5--| 
 
Riff 2: 
E---------------------------------------------| 
B---------------------------------------------| 
G---------------------------------------------| 
D--7----5-------------------------------------| 
A--5----3-------------------------------------| 
E------------5-5-5-5-5-5-5-3-5-5-5-5-5-5-5-5--| 
 
Riff 3: 
E---------------------------------------------| 
B---------------------------------------------| 
G---------------------------------------------| 
D---------------------------------------------| 
A--7----5-------------------------------------| 
E--5----3----5-5-5-5-5-5-5-3-5-5-5-5-5-5-5-5--| 
 
Bridge: 
E-------------| 
B-------------| 
G-------------| 
D--7-7-7-7-7--| 
A--5-5-5-5-5--| 
E-------------| 
 
Riff 4: 
E---------------------------------------------------| 
B---------------------------------------------------| 
G---------------------------------------------------| 
D---------------------------------------------------| 
A---------------------------------------------------| 
E--5-5-5-5-5-5-5-3-5-5-5-5-5-5-5-3-5-5-5-5-5-5-5-5--| 
 
E---------------------------|-----------------------------------| 
B---------------------------|-----------------------------------| 
G---------------------------|-----------------------------------| 
D---------------------------|-----------------------------------| 
A--5-5-5-5-3-3-3-3-3-3-3-3--|----------5-5-5-5-3-3-3-3-3-3-3-3--| 
E---------------------------|--5-5-5-5--------------------------| 
 
E-----------------------------------|-----------------------------------| 
B-----------------------------------|-----------------------------------| 
G-----------------------------------|-----------------------------------| 
D-----------------------------------|-----------------------------------| 
A----------5-5-5-5-3-3-3-3-3-3-3-3--|----------5-5-5-5-3-3-3-3-3-3-3-3--| 
E--5-5-5-5--------------------------|--5-5-5-5--------------------------| 
 
Riff 5: 
E-----------------------------------| 
B-----------------------------------| 
G-----------------------------------| 
D--4--------------2-2-2-------------| 
A--2--2-2-2-2-2-2-0-0-0-5----5-5----| 
E-----------------------3----3-3----| 
 
Riff 6: 
E------------------------------------| 
B------------------------------------| 
G------------------------------------| 
D--------------------------7----5----| 
A--2-2-2-2-2-2-2-2-7-7-7-7-5----3----| 
E------------------------------------| 
 
Riff 7: 
E-----------------------------------|------------------------------| 
B-----------------------------------|------------------------------| 
G-----------------------------------|------------------------------| 
D-----------------------------------|------------------4--4--4--4--| 
A--5-5-5-5-5-5-5-5-7-7-7-7-7-7-7-7--|--0-0-0-0-0-0-0-0-2--2--2--2--| 
E-----------------------------------|------------------------------| 
 
Songstructure: 
Riff 1 (2 times) 
Riff 2 (2 times) 
Riff 3 (2 times) 
Riff 1 
Bridge 
Riff 4 
Riff 1 (2 times) 
Riff 2 (2 times) 
Riff 3 (2 times) 
Riff 1 
Bridge 
Riff 4 
Riff 5 (4 times) 
Riff 6 (4 times) 
Riff 7 
Riff 6 (3 times) 
Riff 5 (4 times) 
Riff 6 (4 times) 
Riff 7 
END 
 
Lyrics: 
 
What do you expect I'm doing up here 
What's with you what's the problem 
You will always treat me obscene 
Who cares if they make sense 
 
You went and sat there and broke their bottles 
 
You rip the seam off the bottom of their jackets 
 
But you won't even know what are there 
 
You're shit 
 
Verbal abuse                    I get into trouble 
 
Verbal abuse                    Burn me, I'll do it again 
 
Verbal abuse                    It's totally your fault 
 
Verbal abuse                    I guess you want some more 
 
Listen to her try to suck me dry 
Problem with you you're afraid to die 
They'll come around again and again 
But in the end I know I'll win 
 
There's no preference 
 
Fuck this lets just kill them dead 
Fuck with this discussion 
Fuck this lets just kill them 
Well well what the fuck 
 
The worst thing has been done to you 
That dumb ass will blow you away 
No one now is getting dead 
 
You won't feel a thing 
Or your body's life you were fighting for 
 
Got one now is dead 
Got another that makes two  
Got one more that is three 
Don't cross me no more or you're dead 
 
Problem with you you're afraid to die 
They'll come around again and again 
But in the end I know I'll win 
 
Fuck this let's just kill them dead 
Smash their head 
Kill them all 
Oh well, oh what, oh once and for all 
 
 
OSKAR WIGREN 1997-03-27
  development and support by
dmitry ivanov