rock
 
|tablatures   |lyrics   |discussion forums   |more tabs @ XGuitar.com

Slayer tabs

Tormentor guitar tab

SLAYER 
 
                 TORMENTOR (from "Show no mercy") 
       Tabbed by Grzegorz Musialik (grg@perkele.giga.com.pl) 
 
   n.h - natural harmonics 
   p   - pull-off 
   \   - slide 
 
 
  rhy. fig 1a                                     end of rhy. fig 1a 
e:------------------------------|-----------------------------------| 
B:------------------------------|-----------------------------------| 
G:------------------------------|-----------------------------------| 
D:------------------------------|-----------------------------------| 
A:-2-----2-2---2--------------3-|-2------2-2---2------------0---2---| 
E:-0-----0-0--------3-------2---|-0------0-0--------3-0-2-3---3---3-| 
 
 
 
 
  rhy. fig 1b                                             end of rhy. fig 1b 
e:---------------------------------|----------------------------------------| 
B:---------------------------------|----------------------------------------| 
G:---------------------------------|----------------------------------------| 
D:---------------------------------|----------------------------------------| 
A:-2------2-2---2---------------3--|--2------2-2----2---------------0-------| 
E:-0------0-0---------3-------2----|--0------0-0----------3---0-2-3---3-2-3-| 
 
 
   play rhy. fig 1a (gtr. II plays one octave higher) 
 
e:---------------------------------|-----------------------------| 
B:---------------------------------|-----------------------------| 
G:---------------------------------|-----------------------------| 
D:---------------------------------|--------------4--------------| 
A:-2------2-2---2---------------3--|--2------2-2--2--5-----------| 
E:-0------0-0---------3-------2----|--0------0-0-----3-----------| 
 
 
  rhy. fig 2                                 end of rhy. fig 2  (Play 4x) 
e:-----------------------------------|----------------------------------| 
B:-----------------------------------|----------------------------------| 
G:-----------------------------------|----------------------------------| 
D:-2------2-----2-----2--------------|-2-----2-----2-----2--------------| 
A:---3p0----3p0---3p0---3p2-----2----|---3p0---3p0---3p0---3p2----------| 
E:--------------------------3--------|-------------------------3---2----| 
 
  rhy fig 3                                     end of rhy. fig 3 (play 6x) 
e:------------------------------------------------------------------------| 
B:------------------------------------------------------------------------| 
G:------------------------------------------------------------------------| 
D:-------------7\9-----------------5\7------------------------------------| 
A:-2-----------5\7-----------------3\5-----------------0-2----------------| 
E:-0---0-0-0-0------------0-0-0-0-------------0-0-0-0--------3----2-5-3-2-| 
 
   play rhy. fig 2  (2 times) 
 
  rhy fig. 4 
e:---------------------------------------------------------| 
B:---------------------------------------------------------| 
G:---------------------------------------------------------| 
D:---------------4-------------5-------------4-------------| 
A:-2-------------2---2-2-2-2-2-3---3-3-3-3-3-2---2-2-2-2-2-| 
E:-0---0-0-0-0-0-------------------------------------------| 
 
 
                                                n.h--- 
e:----------------------------------------------------| 
B:----------------------------------------------------| 
G:-------------------------------------------7------5-| 
D:---------------4-------------5-------------7----5---| 
A:-2-------------2---2-2-2-2-2-3---3-3-3-3-3-5--5-----| 
E:-0---0-0-0-0-0--------------------------------------| 
 
 
e:---------------------------------------------------------| 
B:---------------------------------------------------------| 
G:---------------------------------------------------------| 
D:---------------4-------------5-------------4-------------| 
A:-2-------------2---2-2-2-2-2-3---3-3-3-3-3-2---2-2-2-2-2-| 
E:-0---0-0-0-0-0-------------------------------------------| 
 
               end of rhy. fig 4 
e:------------------------------| 
B:------------------------------| 
G:------------------------------| 
D:-------------------------10\9-| 
A:-2-------------5------9---8\7-| 
E:-0---0-0-0-0-0-3------7-------| 
 
   play rhy. fig 3 (4 times) 
   play rhy. fig 4 
   play rhy. fig 3 (4 times) 
 
e:--------------------------------------------------------|---------------- 
B:--------------------------------------------------------|---------------- 
G:--------------------------------------------------------|---------------- 
D:--------------4-------------5-------------4-------------|---------------- 
A:-2------------2---2-2-2-2-2-3---3-3-3-3-3-2---2-2-2-2-2-|-2-------------- 
E:-0--0-0-0-0-0-------------------------------------------|-0---0-0-0-0-0-- 
 
 
e:------------------------------------------|----------------------------- 
B:------------------------------------------|----------------------------- 
G:------------------------------------------|----------------------------- 
D:-4-------------5-------------7------------|---------------4------------- 
A:-2---2-2-2-2-2-3---3-3-3-3-3-5--5-5-5-5-5-|-2-------------2---2-2-2-2-2- 
E:------------------------------------------|-0---0-0-0-0-0--------------- 
 
                                                                (rest) 
e:-----------------------------|------------------------------------------| 
B:-----------------------------|------------------------------------------| 
G:-----------------------------|------------------------------------------| 
D:-5------------4--------------|------------------------------------------| 
A:-3--3-3-3-3-3-2---2-2-2-2-2--|--2-------------5------------2------------| 
E:-----------------------------|--0---0-0-0-0-0-3--0-0-0-0-0-0------------| 
 
 
    E5 
    (rest) 
    E5 
    (rest) 
 
   rhy fig 2 (2 times) 
   rhy fig 3 (8 times) 
 
    E5 
    E5 
 
 Send corrections, thanks, flames etc. to : grg@perkele.giga.com.pl 
 
 
 
 
 
 
 
 
 
 
 
 
 
 
 
 
 
 
 
 
 
 
 
 
 
 
 
 
 
 
tormentor (solo) 
album:show no mercy 
slayer 
 
transcribed by Rudy Guzman 
 
 
 
solo 1 
   repeat 3 times   repeat 4 times 
e:24-24-24-21-22-24*-21-21-22-21-24-*-----------------------------------| 
B:-----------------*----------------*-21-21-22-21-22-24-22-21-----------| 
G:-----------------*----------------*-------------------------23-20-23b-| 
D:-----------------*----------------*-----------------------------------| 
A:-----------------*----------------*-----------------------------------| 
E:-----------------*----------------*-----------------------------------| 
 
 
                                   3 times 
e:-----------------------------*16h17p16h17p16*19h20p19h20p19h20p19*-21h22p21etc-| 
B:---------------17h18p17h18p17*--------------*--------------------*-------------| 
G:18h19p18h19p18---------------*--------------*--------------------*-------------| 
D:-----------------------------*--------------*--------------------*-------------| 
A:-----------------------------*--------------*--------------------*-------------| 
E:-----------------------------*--------------*--------------------*-------------| 
 
 
                                   repeat          2times    2 times  2  
times 
e:18-19-18-19-------------------*-17-17-14-14-15-*----------*--------*--------*--------| 
B:------------19-16-19b-19p16---*----------------*-13h15p13-*--------*--------*--------| 
G:----------------------------18*----------------*----------*12h14p12*--------*--------| 
D:------------------------------*----------------*----------*--------*12h14p12*------14| 
A:------------------------------*----------------*----------*--------*--------*15-17---| 
E:------------------------------*----------------*----------*--------*--------*--------| 
 
 
e:---------------18~~~----------------------------------9h12p9---10h13p10---11h14p11-| 
B:---------------------------------------------------12--------13---------14---------| 
G:-------------------------------12----------13-15b----------------------------------| 
D:----------------------12-13-15----13-14-16-----------------------------------------| 
A:17-15-14---------------------------------------------------------------------------| 
E:----------16\----------------------------------------------------------------------| 
 
 
                                         3 times 
e:----12h15p12--17b-17b-17b---21b-21b-*----15h18p15*-21-21b---9-12-9-10-13-10-11-14-11| 
B:-15---------------------------------*-18---------*----------------------------------| 
G:------------------------------------*------------*----------------------------------| 
D:------------------------------------*------------*----------------------------------| 
A:------------------------------------*------------*----------------------------------| 
E:------------------------------------*------------*----------------------------------| 
 
 
 
 
e:-12-15-12-13-16-13-14-17-14-15-18-18-19\-|21-21-22-21-19-21-------------| 
B:-----------------------------------------|------------------22-21-19----| 
G:-----------------------------------------|---------------------------18-| 
D:-----------------------------------------|------------------------------| 
A:-----------------------------------------|------------------------------| 
E:-----------------------------------------|------------------------------| 
 
 
 
e:19-19-17-17-15-15-13-13-12-12-10-10-8-8-7-7-----------------| 
B:------------------------------------------------------------| 
G:---------------------------------------------9~~~~----------| 
D:------------------------------------------------------------| 
A:------------------------------------------------------------| 
E:------------------------------------------------------------| 
 
 
solo 2   
e:------------------|-------------15-18-15-18-----------------------------------------------| 
B:------------------|-----17b-17b-------------15-18-15-18-----------------------------------| 
G:-9-11p9-9-11p9-etc|-11/---------------------------------17b--0h2p0h2p0h2p0h2p0h4p0h4p0h4p0| 
D:------------------|-----------------------------------------------------------------------| 
A:------------------|-----------------------------------------------------------------------| 
E:------------------|-----------------------------------------------------------------------| 
 
 
e:--------------------------------------------------------------------------------181818| 
B:-------------------------------19b-------------------------------------17-18-20-------| 
G:h5p0h5p0h5p0h7p0h7p0h7p0---7/--19b----------------------------16-17-19----------------| 
D:-----------------------------------------------------15-16-18-------------------------| 
A:--------------------------------------------15-17-18----------------------------------| 
E:-----------------------------------15-16-18-------------------------------------------| 
 
 
e:191919-212121-22-22b-* 
B:---------------------* 
G:---------------------* 
D:---------------------* 
A:---------------------* 
E:---------------------*
  development and support by
dmitry ivanov