rock
 
|tablatures   |lyrics   |discussion forums   |more tabs @ XGuitar.com

Slayer tabs

Threshold guitar tab

Song: Threshold
Artist: Slayer
Album: God Hates Us All

Tabbed by: Josh Brown
E-mail: entersandman21@msn.com

Tuning- down half a step & drop the low string
D#
A#
F#
C#
G#
C#

Legend-  |- rest(silence the strings)        v- down(wammy bar)
       PM.- palm mute                        ^- up(wammy bar)
         *- harmonics                        ~- vibrato(wammy bar)
      T.B.- tremolo bar(wammy bar)

Riff 1
D#------------------------------------------------------
A#------------------------------------------------------
F#------------------------------------------------------
C#------------|-------|-----------|-------|-------------
G#------------|-------|-----------|-------|-------------
C#--3-2-0-1-0-|-3-2-0-|-3-2-0-1-0-|-3-2-0-|-------------
PM. . . . . .   . . .   . . . . .   . . .

Riff 2
D#--------------------------------------------------------------
A#--------------------------------------------------------------
F#--------------------------------------------------------------
C#------------------------------|-----------------------------|-
G#--3-2-0-1-0--3-2-0--3-2-0-1-0-|-3-2-0-1-0--3-2-0--3-2-0-1-0-|-
C#--3-2-0-1-0--3-2-0--3-2-0-1-0-|-3-2-0-1-0--3-2-0--3-2-0-1-0-|-

Riff 3                        [ play with fill 1 1st & fill 2 2nd time]
D#----------------------------[---------------------------------      ]
A#----------------------------[-----play the fills only on last-      ]
F#----------------------------------section of this riff--------
C#--------------------------------------------------------------
G#--------------------------1---------------------------1-------
C#--1-0--0-1-0--0-1-0--0--0-1---1-0--0-1-0--0-1-0--0--0-1-------
PM. . .  . . .  . . .  .  .     . .  . . .  . . .  .  .

Riff 4
D#----------------------------------------------------------
A#----------------------------------------------------------
F#----------------------------------------------------------
C#----------------------------------------------------------
G#---------------1--------1----------------1--------1-------
C#--1--0-0--0--0-1---0--0-1---1--0-0--0--0-1---0--0-1-------
PM. .  . .  .  .     .  .     .  . .  .  .     .  .

Fill 1                    Fill 2
D#-----------------       D#-------------------------
A#---5*------------       A#---7*--------------------
F#-----------------       F#-------------------------
C#-----------------       C#-------------------------
G#-----------------       G#-------------------------
C#-----------------       C#-------------------------
   T.B. v ^ ~~~              T.B. v ^


Play Riffs in this order-
riff 1 x2
riff 2 x3
riff 1 x6
riff 3 x3(with fill 1 at the end of riff)
riff 4 x4
riff 1 x8
riff 3 x1(with fill 2 at the end of riff)
riff 4 x4
riff 2 x4
  development and support by
dmitry ivanov