rock
 
|tablatures   |lyrics   |discussion forums   |more tabs @ XGuitar.com

Slayer tabs

Threshold bass tab

Song: Threshold
Band: Slayer
Album: God Hates Us All
Year: 2001
Tabbed By David Siddons (farmer_siddons@hotmail.com)

Intro:
|----------------------------|
|----------------------------|
|----------------------------|
|-3-2-0-1-0-2-1-0-2-1-0--3-3-|

Verse:
|---------------------------------------------------------------|
|---------------------------------------------------------------|
|---------------------------------------------------------------|
|-2-1-0-1-0--2-1-0--2-1-0--1-0-1-2-1-0--2-1-0--2-1-0-1-0--1-0-1-|

Pre-Chorus:
|---------------------|
|---------------------|
|---------------------|
|-0-0-1-0-0-1-0-0-1-1-|

Chorus:
|-------------------|
|-------------------|
|-------------------|
|-0-0-0-0-1-0-0-0-1-|

Verse 2:
|------------------------------------|
|------------------------------------|
|------------------------------------|
|-3-2-0-1-0--2-1-0--2-1-0-1-0--1-3-0-|
  development and support by
dmitry ivanov