rock
 
|tablatures   |lyrics   |discussion forums   |more tabs @ XGuitar.com

Slayer tabs

The Final Command guitar tab

FINAL COMMAND 
ALBUM SHOW NO MERCY 
SLAYER 
 
TABBED BY RUDY GUZMAN 
 
note: this is when tom start singing 
  play 4 times 
e:-----------------------------------------------------| 
B:-----------------------------------------------------| 
G:-----------------------------------------------------| 
D:-----------------------------------------------------| 
A:-5-5-5-5-5-5-5-5-5-5-5-5-5-5-5-5p3---3-5--5p3----3-5-| 
E:-----------------------------------5-----------5-----| 
 
  play 2 times 
e:--------------------------------------------------| 
B:--------------------------------------------------| 
G:---------------------------------5--7--------5--7-| 
D:---------------------------------5--7--------5--7-| 
A:-7-7-7-7-7-7-7-7-7-7-7-7-7-7-7-7-------7-7-7------| 
E:--------------------------------------------------| 
 
  play 2 times 
e:-----------------------------------------------------| 
B:-----------------------------------------------------| 
G:-----------------------------------------------------| 
D:-----------------------------------------------------| 
A:-5-5-5-5-5-5-5-5-5-5-5-5-5-5-5-5p3---3-5--5p3----3-5-| 
E:-----------------------------------5-----------5-----| 
 
 
e:-----------------------------------------------| 
B:-----------------------------------------------| 
G:-----------------------------------------------| 
D:--------------------------9p7---7-9--9p7---7-9-| 
A:-9-9-9-9-9-9-9-9-9-9-9-9------9----------9-----| 
E:-7-7-7-7-7-7-7-7-7-7-7-7-----------------------| 
 
 
e:-------------------------------------| 
B:-------------------------------------| 
G:-------------------------------------| 
D:5-5-5-5-5-5-5-5-5--7-7-7-7-7-7-7-7-7-| 
A:3-3-3-3-3-3-3-3-3--5-5-5-5-5-5-5-5-5-| 
E:-------------------------------------| 
 
 
e:-----------------------| 
B:-----------------------| 
G:-----------------------| 
D:--9--4--5--7--9--10--9-| 
A:--7--2--3--5--7--8---7-| 
E:-----------------------| 
 
 
  play 4 times 
e:-----------------------------------------------------| 
B:-----------------------------------------------------| 
G:-----------------------------------------------------| 
D:-----------------------------------------------------| 
A:-5-5-5-5-5-5-5-5-5-5-5-5-5-5-5-5p3---3-5--5p3----3-5-| 
E:-----------------------------------5-----------5-----| 
 
  play 2 times 
e:--------------------------------------------------| 
B:--------------------------------------------------| 
G:---------------------------------5--7--------5--7-| 
D:---------------------------------5--7--------5--7-| 
A:-7-7-7-7-7-7-7-7-7-7-7-7-7-7-7-7-------7-7-7------| 
E:--------------------------------------------------| 
 
  play 2 times 
e:-----------------------------------------------------| 
B:-----------------------------------------------------| 
G:-----------------------------------------------------| 
D:-----------------------------------------------------| 
A:-5-5-5-5-5-5-5-5-5-5-5-5-5-5-5-5p3---3-5--5p3----3-5-| 
E:-----------------------------------5-----------5-----| 
 
 
e:-----------------------------------------------| 
B:-----------------------------------------------| 
G:-----------------------------------------------| 
D:--------------------------9p7---7-9--9p7---7-9-| 
A:-9-9-9-9-9-9-9-9-9-9-9-9------9----------9-----| 
E:-7-7-7-7-7-7-7-7-7-7-7-7-----------------------| 
 
 
e:-------------------------------------| 
B:-------------------------------------| 
G:-------------------------------------| 
D:5-5-5-5-5-5-5-5-5--7-7-7-7-7-7-7-7-7-| 
A:3-3-3-3-3-3-3-3-3--5-5-5-5-5-5-5-5-5-| 
E:-------------------------------------| 
 
 
e:-----------------------| 
B:-----------------------| 
G:-----------------------| 
D:--9--4--5--7--9--10--9-| 
A:--7--2--3--5--7--8---7-| 
E:-----------------------| 
 
solo 
 
  play 4 times 
e:-----------------------------------------------------| 
B:-----------------------------------------------------| 
G:-----------------------------------------------------| 
D:-----------------------------------------------------| 
A:-5-5-5-5-5-5-5-5-5-5-5-5-5-5-5-5p3---3-5--5p3----3-5-| 
E:-----------------------------------5-----------5-----| 
 
  play 2 times 
e:--------------------------------------------------| 
B:--------------------------------------------------| 
G:---------------------------------5--7--------5--7-| 
D:---------------------------------5--7--------5--7-| 
A:-7-7-7-7-7-7-7-7-7-7-7-7-7-7-7-7-------7-7-7------| 
E:--------------------------------------------------| 
 
  play 2 times 
e:-----------------------------------------------------| 
B:-----------------------------------------------------| 
G:-----------------------------------------------------| 
D:-----------------------------------------------------| 
A:-5-5-5-5-5-5-5-5-5-5-5-5-5-5-5-5p3---3-5--5p3----3-5-| 
E:-----------------------------------5-----------5-----| 
 
 
e:-----------------------------------------------| 
B:-----------------------------------------------| 
G:-----------------------------------------------| 
D:--------------------------9p7---7-9--9p7---7-9-| 
A:-9-9-9-9-9-9-9-9-9-9-9-9------9----------9-----| 
E:-7-7-7-7-7-7-7-7-7-7-7-7-----------------------| 
 
 
e:-------------------------------------| 
B:-------------------------------------| 
G:-------------------------------------| 
D:5-5-5-5-5-5-5-5-5--7-7-7-7-7-7-7-7-7-| 
A:3-3-3-3-3-3-3-3-3--5-5-5-5-5-5-5-5-5-| 
E:-------------------------------------| 
 
play 3 times 
e:-----------------------| 
B:-----------------------| 
G:-----------------------| 
D:--9--4--5--7--9--10--9-| 
A:--7--2--3--5--7--8---7-| 
E:-----------------------| 
 
 
 
 
 
 
 
 
 
 
 
 
 
 
 
 
 
 
 
 
 
 
 
 
 
 
 
 
 
 
From: tvdw@cs.kun.nl (Th.P. vd Weide) 
 
The Final Command-Slayer 
 
-------------------------------------------------------------- 
-------------------------------------------------------------- 
-------------------------------------------------------------- 
-0-0-0-3-2-0-3-2-0-0-0-0-3-2-0-5-3-0-0-0-0-3-2-0-3-2-0---3-5-- 
-------------------------------------------------------3-1-3-- 
-------------------------------------------------------1------ 
        p p   p p         p p   p p         p p   p p 
 play this 4 times then play: 
-------------------------------------------------------------- 
-------------------------------------------------------------- 
-------------------------------------------------------------- 
-0-0-0-3-2-0-0-0-0-5-3-0-0-0-0-3-2-0---3---------------------- 
-------------------------------------3-1---------------------- 
-------------------------------------1------------------------ 
        p p         p p         p p            
play this 4 times too and then play 
-------------------------------------------------------------- 
-------------------------------------------------------------- 
-0-0-0-3-2-0-0-0-0-5-3-0-0-0-0-3-2-0---3---------------------- 
-------------------------------------3-1----------------------  
-------------------------------------1------------------------ 
-------------------------------------------------------------- 
        p p         p p         p p 
play this 2 times 
-------------------------------------------------------------- 
-------------------------------------------------------------- 
-------------------------------------------------------------- 
-0-0-0-3-2-0-0-0-0-5-3-0-0-0-0-3-2-0---3---------------------- 
-------------------------------------3-1---------------------- 
-------------------------------------1------------------------ 
        p p         p p         p p 
 
-------------------------------------------------------------- 
-------------------------------------------------------------- 
-------------------------------------------------------------- 
-0-0-0-3-2-0-0-0-0-5-3-0-0-0-0-3-2-0-------------------------- 
-------------------------------------3-2-0-------------------- 
-------------------------------------------3------------------ 
        p p         p p         p p   p p 
This was the intro, I'll post the rest another time 
Peter tvdw@cs.kun.nl 
-- 
 Theo van der Weide            | Computing Science Institute 
 InterNet: tvdw@zeus.cs.kun.nl | University of Nijmegen 
 Fax:      +31-80-553450       | Voice:    +31-80-653361  
 Ftp:       ftp.cs.kun.nl      | Directory: publ/csi/SoftEng/InfSyst/articles  
 
 
 
 
 
 
 
 
 
 
 
 
 
 
 
 
 
 
 
 
 
the final command (solo) 
album: show no mercy 
slayer 
 
transcribed by Rudy Guzman 
 
 
solo 
                                                             5 times 
e:--------------------------------------------------------*------------*----| 
B:--------------------------------------------------------*----16h19p16*-19b| 
G:-5h7p5h7p5h7p5h7p5h7p5h7p5h7p5h7p5etc...-7b-7b-7b-7p5---*-18---------*----| 
D:------------------------------------------------------7-*------------*----| 
A:--------------------------------------------------------*------------*----| 
E:--------------------------------------------------------*------------*----| 
 
 
   play 2 times            play 2 times        play 2 times 
e:18p15-18p15-18p15----*-19p16-19p16-19p16---*20p17-20p17-20p17----| 
B:------------------17-*-------------------19*------------------20-| 
G:---------------------*---------------------*---------------------| 
D:---------------------*---------------------*---------------------| 
A:---------------------*---------------------*---------------------| 
E:---------------------*---------------------*---------------------| 
 
                            4 times 4 times  4 times  4 times         4  
times 
e:21p18-21p18-21p18----21b-*-9-7-6-*-10-8-7-*-11-9-8-*-12-10-9-*-14b-|-17-15-14-| 
B:------------------21-----*-------*--------*--------*---------*-----|----------| 
G:-------------------------*-------*--------*--------*---------*-----|----------| 
D:-------------------------*-------*--------*--------*---------*-----|----------| 
A:-------------------------*-------*--------*--------*---------*-----|----------| 
E:-------------------------*-------*--------*--------*---------*-----|----------| 
 
   4 times    4 times    4 times 
e:-18-16-15-*-19-17-16-*-20-18-17-*-21b-----19b--| 
B:----------*----------*----------*---------23b--| 
G:----------*----------*----------*--------------| 
D:----------*----------*----------*--------------| 
A:----------*----------*----------*--------------| 
E:----------*----------*----------*--------------|
  development and support by
dmitry ivanov