rock
 
|tablatures   |lyrics   |discussion forums   |more tabs @ XGuitar.com

Slayer tabs

Temptation guitar tab

Temptation 
By Slayer 
Tabbed by Gabriel Hidalgo 
 
Intro 
|--------------------------------------------------------------------------| 
|--------------------------------------------------------------------------| 
|--------------------------------------------------------------------------| 
|--------3---------5----------------------------X2-------------------------| 
|--------1---------3-------------------------------------------------------| 
|-3p1p0-----3p1p0------3p1-00000-1p0-00000---------------------------------| 
PM                         .....     ..... 
 
Verse (have your ever...) 
|--------------------------------------------------------------------------| 
|--------------------------------------------------------------------------| 
|--------------------------------------------------------------------------| 
|--------------------------------------------------------------------------| 
|------4------------------------5---4--------------------------------------| 
|-0-00-2--000-000-000-000--0-00-3-0-2--111-111-111-111---------------------| 
PM. ..    ... ... ... ...  . ..   .    ... ... ... ... 
|--------------------------------------------------------------------------| 
|--------------------------------------------------------------------------| 
|--------------------------------------------------------------------------| 
|--------------------------------------------------------------------------| 
|------4------------------------5---4--/trem pick\-------------------------| 
|-0-00-2--000-000-000-000--0-00-3-0-2--3333-22222--------------------------| 
PM. ..    ... ... ... ...  . ..   .    .... ..... 
 
Break          Interlude 
|----------|---------------------------------------| 
|----------|---------------------------------------| 
|----------|---------------------------------------| 
|-3-2------|-------------7/8-----5-4--7/8--12------|play this several times 
|-1-0---5-4|-------------7/8-----5-4--7/8--10------| 
|-------3-2|------0-000-------00-------------------| 
 
For solo rythm play the Verse and  return to interlude them play: 
 
|--------------------------------------------------------------------------| 
|--------------------------------------------------------------------------| 
|--------------------------------------------------------------------------| 
|-12-11--------------------------------------------------------------------| 
|-10-9-----3---------------3--------------3-----4/5-4--3-------------------| 
|----------1-000-000-000-0-1-000-000-000--1-000-2/3-2--1-1-1-1-1-1-1-1-----| 
PM           ... ... ... .   ... ... ...    ...        . . . . . . . . 
 
End with these 2 chords 
|----------------------------| 
|----------------------------| 
|----------------------------| 
|---10-9---------------------| 
|---8--7---------------------| 
|----------------------------| 
 
All the riffs are here, maybe i missed a variation of some riff, but you'll  
know how to play it. And so with the palm mute's, i could have forgot some. 
Good bYe.
  development and support by
dmitry ivanov