rock
 
|tablatures   |lyrics   |discussion forums   |more tabs @ XGuitar.com

Slayer tabs

Temptation bass tab

Band- Slayer
Song- Temptation

Intro (a couple of times)

|-------------------------------------------------------------------|
|-------------------------------------------------------------------|
|--2----------------------------------------------------------------|
|-------------------------------------------------------------------|


Chorus
|-------------------------------------------------------------------|
|---2-2-2-2-------------------------2-2-2-2-----------------5-4-----|
|-----------3-3-3-3-2-2-2-2-2-2-2-2---------3-3-3-3-2-2-2-2---------|
|-------------------------------------------------------------------|


Chorus continued (it's simple as this,except for the timing)
|---------5-5-5-----------------------------------------------------|
|---5-5-5-----------------------------------------------------------|
|-------------------------------------------------------------------|
|-------------------------------------------------------------------|


Verse
|-------------------------------------------------------------------|
|---2---2----5---5-----7---7----------------------------------------|
|-----2---2----5---5-5---5---3-3-3-5-5-5----------------------------|
|-------------------------------------------------------------------|
  development and support by
dmitry ivanov