rock
 
|tablatures   |lyrics   |discussion forums   |more tabs @ XGuitar.com

Slayer tabs

SS-3 guitar tab

SS-3 (SLAYER/DIVINE INTERVENTION)by metalman 
 
TUNE DOWN 1/2 STEP 
 
the 3 small strings are erease whe useless                                                                                 
D---||*--0--2-----3--1-----|--0--2-----5--3-----|--0--2-----3--1-----|---------- 
A---||---0--2-----2--1-----|--0--2-----2--2-----|--0--2-----2--1-----|---------- 
E---||---------0--------0--|--------0--------0--|--------0--------0--|---------- 
                                                                                 
    1-2-3 time            x4   4th time                                          
D------9-8--------7-6-----*||-----9-8--------7-6-----||*-----9-8--------7-6----- 
A------7\6--------5\4------||-----7\6--------5\4-----||------7\6--------5\4----- 
E---8-------7--6-------5---||--8-------7--6-------5--||---8-------7--6---------- 
                                                                                 
       x4                                                                        
D------*||--------|-----------------------------------------------5------------- 
A-------||--5-----|-----------------3-----------------------------3------------- 
E---5---||--3-----|--2-----2--2--2--1--2--2--2-----2-----2--2--2-----2--2--2---- 
                                                                                 
                                                                                 
D---------------------3-----------5-4-----6-5-----|-----------------3----------- 
A---------------------1-----------3\2-----4\3-----|-----------------1----------- 
E------2-----2--2--2-----2--2--2-------3-------4--|--2-----2--2--2-----2--2----- 
                                                                                 
                                                                                 
D------------------------5-----------|-----------------3-----------5-4-----6---- 
A------------------------3-----------|-----------------1-----------3\2-----4---- 
E---2-----2-----2--2--2-----2--2--2--|--2-----2--2--2-----2--2--2-------3------- 
                                                                                 
                                                                                 
D----5-----|-----------------3-----------------------------5-----------|-------- 
A---\3-----|-----------------1-----------------------------3-----------|-------- 
E-------4--|--2-----2--2--2-----2--2--2-----2-----2--2--2-----2--2--2--|--5----- 
                                                                                 
                                                                                 
D---------------------------------------|--------------------------------------- 
A------------------------------3--2--0--|--------------------------------------- 
E---3--2--5--3--2--2--2--2--2-----------|--3--2--0--3--2--0--0--0--0--0--3------ 
                                                                                 
          verse 1-2                                                              
D---------||*------------------------------------------------------------------- 
A---------||---3---------------------------------------------------------------- 
E---2--0--||---1--0--0--0-----0-----0-----0-----0-----0--0--0-----0-----0------- 
                                                                                 
                                                                                 
D------|--------------------------------------------|--------------------------- 
A------|--3--------------------------------1--------|--3------------------------ 
E---0--|--1--0--0--0--0--0--0-----0--0--0--1--3--2--|--1--0--0--0-----0--0------ 
                                                                                 
                                                                                 
D------------------------------------|------------------------------------------ 
A---------------------------1--------|--3--------------------------------------- 
E---0--0--0--0--0--0--0--0--1--3--2--|--1--0--0--0--0--0--0--0--0--0--0--0------ 
                                                                                 
                                                                                 
D---------|--------------------------------------|------------------------------ 
A---------|--3-----------------1-----------------|--3--------------------------- 
E---0--0--|--1--0--0--0--0--0--1--3--2--0--1--2--|--1--0--0--0-----0-----0------ 
                                                                                 
                                                                                 
D---------------------------------------------|--------------------------------- 
A---------------------------------------------|--3------------------------------ 
E------0-----0-----0--0--0-----0-----0-----0--|--1--0--0--0--0--0--0--0--0------ 
                                                                                 
                                                                                 
D---------------|--------------------------------------------|------------------ 
A------1--------|--3-----------------------------------------|--3--------------- 
E---0--1--3--2--|--1--0--0--0--0--0--0--0--0--0--0--0--0--0--|--1--0--0--0------ 
                                                                                 
                            chorus                                               
D---------------------------||*------------------------------------------------- 
A---------1--------1--------||-------------------------------------------------- 
E---0--0--1--2--1--1--3--0--||---2-----2--2--2-----3--2--0--2--2--2--2--3--2---- 
                                                                                 
       don't play last bar in verse 2               x4   verse 2                 
D------|--------------------------------------------*||--------------|---------- 
A------|---------------------------------------------||--------------|---------- 
E---0--|--2-----2--2--2--3--2--0--5--3--2--3--2--0---||--------------|---------- 
                                                                                 
    last bar for verse 2                                                         
D------------------------6-5-----5-4-----||*-----------------------------6------ 
A------------------------4\3-----3\2-----||------------------------------4------ 
E---2--2--2--2--3--2--0-------4-------3--||---4-----4--4--4-----4--4--4--------- 
                                                                                 
                   x3                      chorus 1 1/2 time                     
D----5-----5-4-----*||--4-3-----3-2-----|--------------------------|------------ 
A---\3-----3\2------||--2\1-----1\0-----|--------------------------|------------ 
E-------4-------3---||-------2-------1--|--------------------------|--2--------- 
                                                                                 
                                                                                 
D---------------------6-5-----5-4-----||*-----------------------------6-5------- 
A---------------------4\3-----3\2-----||------------------------------4\3------- 
E---2--2--2--3--2--0-------4-------3--||---4-----4--4--4-----4--4--4-------4---- 
                                                                                 
            x3                 rhy.1                                             
D---5-4-----*||--4-3-----3-----||*---------------------------------------|------ 
A---3\2------||--2\1-----1-----||---6--------------------7--10--7--------|------ 
E--------3---||-------2--------||---6--0--0--0--0--0--0---------7--0--0--|------ 
                                                                                 
                                                                                 
D----------------------------------8--|----------------------------------------- 
A---6--------------------7--10--6-----|--6--------------------7--10--7---------- 
E---6--0--0--0--0--0--0---------------|--6--0--0--0--0--0--0---------7--0--0---- 
                                                                                 
    1-2-3 time                             x4   4th time                         
D---|--------------------------------------*||---------------------------------- 
A---|--6-----------------5--------------7---||--6--------------5---------------- 
E---|--6--0-----0--0--0--5--0-----0--0--7---||--6--0--0--0--0--5--0--0--0------- 
                                                                                
       verse 3 rhy.2                                          x2                 
D------||*--||*-----------------------------------------------*||--------------- 
A------||---||---6-----------------------------------------7---||--10----------- 
E---12\||---||---4-----4--4--4--4--4--4--4--4--4--4--4--4--5---||--8------8----- 
                                                                                 
                                                                                 
D---------------------------------------------|--------------------------------- 
A---------------------------------------------|--9-----------------------10----- 
E---8--8--8--8--8-----8--8--8--8--8--8--8--8--|--7-----7--7--7--7--7--7--8------ 
                                                                                 
                                                            x2                   
D---------||*-----------------------------------------------*||----------------- 
A---9--7--||---6-----------------------------------------7---||--10------------- 
E---7--5--||---4-----4--4--4--4--4--4--4--4--4--4--4--4--5---||--8------8--8---- 
                                                                                 
                                                    end rhy.2 x2                 
D---------------------------------------|---------------------*||--------------- 
A---------------------------------------|--9--7--9--10--9--7---||--------------- 
E---8--8--8--8--8--8--8--8--8--8--8--8--|--7--5--7--8---7--5---||--------------- 
                                                                                 
    rhy.3 solo                                                                   
D---||*-------------------------------------------|----------------------------- 
A---||---8-7--------------------------------------|--8-7--------6--------------- 
E---||---6\5--0--0--0--0--0--0--0--0--0--0--0--0--|--6\5--0--0--4--0--0--0------ 
                                                                                 
                                                      first time                 
D---------|-------------------------------------------|------------------------- 
A------5--|--8-7--------------------------------------|--8-7--------6----------- 
E---0--3--|--6\5--0--0--0--0--0--0--0--0--0--0--0--0--|--6\5--0--0--4--0--0----- 
                                                                                 
             x2   second time                     rhy.1                          
D------------*||-------------------------------|-----------|--------|----------- 
A---------3---||--8-7--------6--------------7--|-----------|--6-----|--6-------- 
E---0--0--1---||--6\5--0--0--4--0--0--0--0--7--|-----------|--6-----|--6-------- 
                                                                                 
                           verse 4 with rhy.2 x2                                 
D---|--------|----------|--------------------------------|---------------------- 
A---|--6-----|----------|--------------------------------|---------------------- 
E---|--6-----|--x\x\x\x\|--------------------------------|---------------------- 
                                                                                 
    solo 3 with rhy.3 x2            verse 5 rhy.4                                
D------------------------------||*---------------------------------------------- 
A------------------------------||----------------------------------------------- 
E------------------------------||---0h2--2--2--2--2--2--2--3p1--1--1--1--1------ 
                                                                                 
                                                                                 
D---------|------------------------------------------------|-------------------- 
A---------|------------------------------------------------|-------------------- 
E---1--1--|--0h2--2--2--2--2--2--2--5p3--3--3--3--3--3--3--|--0h2--2--2--2------ 
                                                                                 
                                                                                 
D-----------------------------------|------------------------------------------- 
A-----------------------------------|------------------------------------------- 
E---2--2--2--3p1--1--1--1--1--1--1--|--0h2--2--2--2--2--2--2-----3--3--3--3----- 
                                                                                 
       end rhy.4x4   rhy.1 x2       with rhy.1                                   
D---------------*||--------------|--------|--------|--------|------------------- 
A----------------||--------------|--6-----|--6-----|--6-----|--6---------------- 
E---3--3--3--3---||--------------|--6-----|--6-----|--6-----|--6--0--0--0--0---- 
                                                                                 
                      with rhy.1 first bar       both gtr                        
D------------------|--------------------------|--------------------------------- 
A---5-----------7--|--6-----------------------|--6--------------5--------------- 
E---5--0--0--0--7--|--6-----------------------|--6--0--0--0--0--5--0--0--0------ 
                                                                                 
                                                                                 
D------|-----------------------------------|----------| 
A---7--|--6--------------4--------------5--|--7-------| 
E---7--|--6--0--0--0--0--4--0--0--0--0--5--|--7\------|
  development and support by
dmitry ivanov