rock
 
|tablatures   |lyrics   |discussion forums   |more tabs @ XGuitar.com

Slayer tabs

Spiritual Law guitar tab

Spiritual Law 
by ? 
From Undisputed Attitude 
Performed by Slayer 
Tabbed by Chris Balch 
ss-3@slayerized.com 
 
This song is tuned down 1/2 a step 
 
.-Palm mute 
\-Slide down 
/-Slide up 
~-Vibrato 
\ / \ /____ 
\/ \/ | 
/\ /\ |----This means to do scrazy stuff with 
/ \ / \____| your whammy bar 
 
-------------------------------------------------------------------------------- 
 
|-----------------------------------------------| 
|------------------------------------\--/-\--/--| 
|-------------------------------------\/---\/---| Play 
|---------------------------------0---/\---/\---| 4 times 
|---------------------------------0--/--\-/--\--| 
|-3-2-2-3-2-2-3-2-3-2-2-3-2-2-3-2---------------| 
. . . . . . . . . . . . . . . . 
 
|-------------------------------------------------------------------| 
|-------------------------------------------------------------------| 
|-------------------------------------------------------------------| Play 
|-9-999999-10--8---9-999999-10--8---12-121212121212-11-111111111111-| 3 
times 
|-7-777777--8--6---7-777777--8--6---10-101010101010--9--9-9-9-9-9-9-| 
|-------------------------------------------------------------------| 
 
|-----------------------------------| 
|-----------------------------------| 
|-----------------------------------| 
|-9-9999999-------------------------| 
|-7-7777777---2-2222222---2-2222222-| 
|-------------0-0000000---0-0000000-| 
 
|------------------------------------------------| 
|------------------------------------------------| 
|------------------------------------------------| 
|-9999999999999999101010101010101010101010101099-| 
|-7777777777777777-8-8-8-8-8-8-8-8-8-8-8-8-8-877-| 
|------------------------------------------------| 
 
|--------------------------------------------------| 
|--------------------------------------------------| 
|--------------------------------------------------| 
|-777777777777777712121212121212121212121212121414-| 
|-555555555555555510101010101010101010101010101212-| 
|--------------------------------------------------| 
 
|------------------------------------------------| 
|------------------------------------------------| 
|------------------------------------------------| 
|-9999999999999999101010101010101010101010101099-| 
|-7777777777777777-8-8-8-8-8-8-8-8-8-8-8-8-8-877-| 
|------------------------------------------------| 
 
|------------------| 
|------------------| 
|------------------| 
|-7777777777777777-| 
|-5555555555555555-| 
|------------------| 
 
|-------------------------------------------------------------------| 
|-------------------------------------------------------------------| 
|-------------------------------------------------------------------| Play 
|-9-999999-10--8---9-999999-10--8---12-121212121212-11-111111111111-| 3 
times 
|-7-777777--8--6---7-777777--8--6---10-101010101010--9--9-9-9-9-9-9-| 
|-------------------------------------------------------------------| 
 
|-----------------------------------| 
|-----------------------------------| 
|-----------------------------------| 
|-9-9999999-------------------------| 
|-7-7777777---2-2222222---2-2222222-| 
|-------------0-0000000---0-0000000-| 
 
|------------------------------------------------| 
|------------------------------------------------| 
|------------------------------------------------| 
|-9999999999999999101010101010101010101010101099-| 
|-7777777777777777-8-8-8-8-8-8-8-8-8-8-8-8-8-877-| 
|------------------------------------------------| 
 
|--------------------------------------------------| 
|--------------------------------------------------| 
|--------------------------------------------------| 
|-777777777777777712121212121212121212121212121414-| 
|-555555555555555510101010101010101010101010101212-| 
|--------------------------------------------------| 
 
|------------------------------------------------| 
|------------------------------------------------| 
|------------------------------------------------| 
|-9999999999999999101010101010101010101010101099-| 
|-7777777777777777-8-8-8-8-8-8-8-8-8-8-8-8-8-877-| 
|------------------------------------------------| 
 
|--------------------------------------------------| 
|--------------------------------------------------| 
|--------------------------------------------------| 
|-777777777777777712121212121212121212121212121414-| 
|-555555555555555510101010101010101010101010101212-| 
|--------------------------------------------------| 
 
|------------------------------------------------| 
|------------------------------------------------| 
|------------------------------------------------| 
|-9999999999999999101010101010101010101010101099-| 
|-7777777777777777-8-8-8-8-8-8-8-8-8-8-8-8-8-877-| 
|------------------------------------------------| 
 
|--------------------------------------------------| 
|--------------------------------------------------| 
|--------------------------------------------------| 
|-777777777777777712121212121212121212121212121414-| 
|-555555555555555510101010101010101010101010101212-| 
|--------------------------------------------------| 
 
|------------------------------------------------| 
|------------------------------------------------| 
|------------------------------------------------| 
|-9999999999999999101010101010101010101010101099-| 
|-7777777777777777-8-8-8-8-8-8-8-8-8-8-8-8-8-877-| 
|------------------------------------------------| 
 
|------------------| 
|------------------| 
|------------------| 
|-7777777777777777-| 
|-5555555555555555-| 
|------------------| 
 
|--------------------------------------------------| 
|--------------------------------------------------| 
|--------------------------------------------------| 
|-121212121212111112121212121211111212121212121111-| 
|-101010101010-9-9101010101010-9-9101010101010-9-9-| 
|--------------------------------------------------| 
 
|-------------------------------------------------------------------------| 
|-------------------------------------------------------------------------| 
|-------------------------------------------------------------------------| 
|-12-12-------11-11-------12-12-------11-11---------------/9~-------------| 
|-10-10-12-12--9--9-11-11-10-10-12-12--9--9-11-11-9-9-9-9------9-9--9-9-9-| 
|-------10-10--------9--9-------10-10--------9--9-7-7-7-7------7-7--7-7-7-| 
 
|-------------------------------------------------------------------------| 
|-------------------------------------------------------------------------| 
|-------------------------------------------------------------------------| 
|-12-12-------11-11-------12-12-------11-11---------------/9~-------------| 
|-10-10-12-12--9--9-11-11-10-10-12-12--9--9-11-11-9-9-9-9------9-9--9-9-9-| 
|-------10-10--------9--9-------10-10--------9--9-7-7-7-7------7-7--7-7-7-| 
. . . . . . . . . . . . . . . . 
 
|-------------------------------------------------| 
|-------------------------------------------------| 
|-------------------------------/8~---------------| 
|-------------------------------------------------| 
|-7---7-7---9--10--10---9-9-9-9------9-9--9-9-9---| 
|-5---5-5---7---8---8---7-7-7-7------7-7--7-7-7---| 
 
|-------------------------| 
|-------------------------| 
|-------------------------| 
|-------------------------| 
|-7---7-7---9--10--10-----| 
|-5---5-5---7---8---8-15\-| 
 
|---------------------------------------------------------------------| 
|---------------------------------------------------------------------| 
|---------------------------------------------------------------------| 
|---------------------------------------------------------------------| 
|---------------------------------6-7-6-7-6-7-6-7-9-10-9-10-9-10-9-10-| 
|-7-8-7-8-7-8-7-8-7-8-7-8-7-8-7-8-------------------------------------| 
. . . . . . . . . . . . . . . . . . . . . . . . . . . . . . . . 
 
|----------------------------------------------------------------------| 
|----------------------------------------------------------------------| 
|----------------------------------------------------------------------| 
Play 
|-12---------11---------12---------11-----------------/9~--------------| 2 
times 
|-10----12----9---11----10----12----9---11----9-9-9-9------9-9--9-9-9--| 
|-------10---------9----------10---------9----7-7-7-7------7-7--7-7-7--| 
 
|--------------------------------------------------| 
|--------------------------------------------------| 
|--------------------------------/8~---------------| 
|--------------------------------------------------| 
|-7---7-7---9--10--10~---9-9-9-9------9-9--9-9-9---| 
|-5---5-5---7---8---8~---7-7-7-7------7-7--7-7-7---| 
 
|---------------------| 
|---------------------| 
|---------------------| 
|---------------------| 
|-7---7-7---9--10--10-| 
|-5---5-5---7---8---8-| 
 
|-------------------------------------------------------------------| 
|-------------------------------------------------------------------| 
|-------------------------------------------------------------------| Play 
|-9-999999-10--8---9-999999-10--8---12-121212121212-11-111111111111-| 3 
times 
|-7-777777--8--6---7-777777--8--6---10-101010101010--9--9-9-9-9-9-9-| 
|-------------------------------------------------------------------| 
 
|-----------------------------------| 
|-----------------------------------| 
|-----------------------------------| 
|-9-9999999-------------------------| 
|-7-7777777---2-2222222---2-2222222-| 
|-------------0-0000000---0-0000000-| 
 
|------------------------------------------------| 
|------------------------------------------------| 
|------------------------------------------------| 
|-9999999999999999101010101010101010101010101099-| 
|-7777777777777777-8-8-8-8-8-8-8-8-8-8-8-8-8-877-| 
|------------------------------------------------| 
 
|--------------------------------------------------| 
|--------------------------------------------------| 
|--------------------------------------------------| 
|-777777777777777712121212121212121212121212121414-| 
|-555555555555555510101010101010101010101010101212-| 
|--------------------------------------------------| 
 
|------------------------------------------------| 
|------------------------------------------------| 
|------------------------------------------------| 
|-9999999999999999101010101010101010101010101099-| 
|-7777777777777777-8-8-8-8-8-8-8-8-8-8-8-8-8-877-| 
|------------------------------------------------| 
 
|--------------------------------------------------| 
|--------------------------------------------------| 
|--------------------------------------------------| 
|-777777777777777712121212121212121212121212121414-| 
|-555555555555555510101010101010101010101010101212-| 
|--------------------------------------------------| 
 
|------------------------------------------------| 
|------------------------------------------------| 
|------------------------------------------------| 
|-9999999999999999101010101010101010101010101099-| 
|-7777777777777777-8-8-8-8-8-8-8-8-8-8-8-8-8-877-| 
|------------------------------------------------| 
 
|--------------------------------------------------| 
|--------------------------------------------------| 
|--------------------------------------------------| 
|-777777777777777712121212121212121212121212121414-| 
|-555555555555555510101010101010101010101010101212-| 
|--------------------------------------------------| 
 
|------------------------------------------------| 
|------------------------------------------------| 
|------------------------------------------------| 
|-9999999999999999101010101010101010101010101099-| 
|-7777777777777777-8-8-8-8-8-8-8-8-8-8-8-8-8-877-| 
|------------------------------------------------| 
 
|--------------------------------------------------| 
|--------------------------------------------------| 
|--------------------------------------------------| 
|-777777777777777712121212121212121212121212121414-| 
|-555555555555555510101010101010101010101010101212-| 
|--------------------------------------------------| 
 
|--------------------------------------------------| 
|--------------------------------------------------| 
|--------------------------------------------------| Play 
|-999999991010101010101010777777771212121212121212-| 3 times 
|-77777777-8-8-8-8-8-8-8-8555555551010101010101010-| 
|--------------------------------------------------| 
 
|--------------------------------------------| 
|--------------------------------------------| 
|--------------------------------------------| 
|-99999999101010101010101077777777-5---------| 
|-77777777-8-8-8-8-8-8-8-855555555-5---------| 
|----------------------------------3---------| 
 
-------------------------------------------------------------------------------- 
 
That's that........................................ 
 
It might look a bit weird at first 
but just keep lookin and you'll get it..... 
 
Mail me with corrections at 
 
ss-3@slayerized.com
  development and support by
dmitry ivanov