rock
 
|tablatures   |lyrics   |discussion forums   |more tabs @ XGuitar.com

Slayer tabs

Silent Scream guitar tab

SONG: Silent Scream  
ARTIST: Slayer 
ALBUM: South Of Heaven 
Tabbed by: David Lichter (lichter@ebox.tninet.se) 
 
 
Tune down 1/2 step. 
 
 
 
Intro: 
Eb|-----------------------------------| 
Bb|-----------------------------------| 
Gb|-----------------------------------| 
Db|--------------------------4--3-----| 
Ab|--------------------------2--1-----| 
Eb|-0-0-0-0-0-0-0-0-0-0-0-0-----------| 
 PM|-----------------------| 
 
  Nightmare, the persecution... 
Eb|--------------------------------| 
Bb|--------------------------------| 
Gb|--------------------------------| 
Db|----9----8----------------------| 
Ab|-7---10---9--8/10--7------------| 
Eb|--------------------------------| 
 
    
Chorus: 
   Silent scream, bury the... 
Eb|--------------------------------| 
Bb|--------------------------------| 
Gb|--------------------------------| 
Db|--4----3------------------------| 
Ab|--2----1------------------------| 
Eb|--------------------------------| 
 
Eb|--------------------------------| 
Bb|--------------------------------| 
Gb|--------------------------------| 
Db|-4--2--4--2--4--2--4--5---------| 
Ab|-2--0--2--0--2--0--2--3---------| 
Eb|--------------------------------| 
 
   Beaten and torn, sacrifice the...  
Eb|--------------------------------| 
Bb|--------------------------------| 
Gb|--------------------------------| 
Db|--4----3------------------------| 
Ab|--2----1------------------------| 
Eb|--------------------------------| 
 
Eb|---------------------------| 
Bb|---------------------------| 
Gb|---------------------------| 
Db|-4--2--4--2--4--2--4--5----| 
Ab|-2--0--2--0--2--0--2--3----| 
Eb|---------------------------| 
 
Eb|-------------------------------| 
Bb|-------------------------------| 
Gb|-------------------------------| 
Db|--9--7--9--7--9--7--9--10------| 
Ab|--7--5--7--5--7--5--7--8-------| 
Eb|-------------------------------| 
 
  Shattered, adolescent... 
Eb|--------------------------------| 
Bb|--------------------------------| 
Gb|--------------------------------| 
Db|----9----8----------------------| 
Ab|-7---10---9--8/10--7------------| 
Eb|--------------------------------| 
 
 
   Silent scream, crucify bastard... 
Eb|--------------------------------| 
Bb|--------------------------------| 
Gb|--------------------------------| 
Db|--4----3------------------------| 
Ab|--2----1------------------------| 
Eb|--------------------------------| 
 
Eb|--------------------------------| 
Bb|--------------------------------| 
Gb|--------------------------------| 
Db|-4--2--4--2--4--2--4--5---------| 
Ab|-2--0--2--0--2--0--2--3---------| 
Eb|--------------------------------| 
 
   Beaten and torn, sanctify lives.. 
Eb|--------------------------------| 
Bb|--------------------------------| 
Gb|--------------------------------| 
Db|--4----3------------------------| 
Ab|--2----1------------------------| 
Eb|--------------------------------| 
 
Eb|---------------------------| 
Bb|---------------------------| 
Gb|---------------------------| 
Db|-4--2--4--2--4--2--4--5----| 
Ab|-2--0--2--0--2--0--2--3----| 
Eb|---------------------------| 
 
Eb|-------------------------------| 
Bb|-------------------------------| 
Gb|-------------------------------| 
Db|--9--7--9--7--9--7--9--10------| 
Ab|--7--5--7--5--7--5--7--8-------| 
Eb|-------------------------------| 
 
 
Solo 
 
 
 
After the solo it's a riff that couldn't tab out 
 
 
 
Eb|-----------------------------------| 
Bb|-----------------------------------| 
Gb|-----------------------------------| 
Db|--------------------------4--3-----| 
Ab|--------------------------2--1-----| 
Eb|-0-0-0-0-0-0-0-0-0-0-0-0-----------| 
 PM|-----------------------| 
 
 
Nightmare, the persecution... 
Eb|--------------------------------| 
Bb|--------------------------------| 
Gb|--------------------------------| 
Db|----9----8----------------------| 
Ab|-7---10---9--8/10--7------------| 
Eb|--------------------------------| 
 
   Innocence with drawn in fear... 
Eb|--------------------------------| 
Bb|--------------------------------| 
Gb|--------------------------------| 
Db|--4----3------------------------| 
Ab|--2----1------------------------| 
Eb|--------------------------------| 
 
Eb|--------------------------------| 
Bb|--------------------------------| 
Gb|--------------------------------| 
Db|-4--2--4--2--4--2--4--5---------| 
Ab|-2--0--2--0--2--0--2--3---------| 
Eb|--------------------------------| 
 
   Fires burning can you hear... 
Eb|--------------------------------| 
Bb|--------------------------------| 
Gb|--------------------------------| 
Db|--4----3------------------------| 
Ab|--2----1------------------------| 
Eb|--------------------------------| 
      cries... 
Eb|---------------------------| 
Bb|---------------------------| 
Gb|---------------------------| 
Db|-4--2--4--2--4--2--4--5----| 
Ab|-2--0--2--0--2--0--2--3----| 
Eb|---------------------------| 
 
   ...in the night. 
Eb|-------------------------------| 
Bb|-------------------------------| 
Gb|-------------------------------| 
Db|--9--7--9--7--9--7--9----------| 
Ab|--7--5--7--5--7--5--7----------| 
Eb|-------------------------------| 
 
 
This song wasn't easy to tab out. 
 
Any comments, questions mail me: lichter@ebox.tninet.se 
 
 
 
 
 
 
 
 
 
 
 
 
 
 
 
 
 
 
 
 
 
 
 
 
 
silent scream (solo) 
album:south of heaven 
slayer 
 
tabbed by Rudy Guzman 
 
solo 1 
  play 4 times 
eb:20-18-17----|17-18-20-17h18p17-----------------------------------------| 
 
Bb:---------20-|------------------20-17-18-17-----------------------------| 
 
Gb:------------|------------------------------20-17-18-17-----------------| 
 
Db:------------|------------------------------------------20-17-18-17-----| 
 
Ab:------------|------------------------------------------------------20\-| 
 
Eb:------------|----------------------------------------------------------| 
 
 
 
 
eb:-----------------------------------------------------------------------------15-18b| 
 
Bb:------------------------------------------------------------------12-13-15/18------| 
 
Gb:---------------------------------------------------12-15b-12-13-15-----------------| 
 
Db:------------------------------------12h14-12-13-15---------------------------------| 
 
Ab:------------------12-14-15-12-14-15------------------------------------------------| 
 
Eb:12-13-15-12-13-15------------------------------------------------------------------| 
 
 
 
     t       t        t         t 
eb:-------*---------*---------|--------------------------------------------| 
 
Bb:-18-14-*-17-14h15*---------|--------------------------------------------| 
 
Gb:-------*---------*17-14h15-|------9\------------------------------------| 
 
Db:-------*---------*---------|17-14-----7-8-10-7-8-7----------------------| 
 
Ab:-------*---------*---------|-----------------------10-7-8-7-7h8p7-7~~ah-| 
 
Eb:-------*---------*---------|--------------------------------------------| 
 
 
 
 
solo 2 -------------------------------------- 
eb:-----------------------------------------------------------12-14-15-14-12-| 
 
Bb:--------------------------------------------12-13-12-13-15----------------| 
 
Gb:-11b--11-11-11-11-11-11-11-11-11-11-11-11~~-------------------------------| 
 
Db:--------------------------------------------------------------------------| 
 
Ab:--------------------------------------------------------------------------| 
 
Eb:--------------------------------------------------------------------------| 
 
 
 
 
 
eb:------------------------------12-14-15----------13-15-16----------14-16-17| 
 
Bb:15-12-13-12-13-------12-13-15----------13-14-16----------14-15-17---------| 
 
Gb:---------------14-12------------------------------------------------------| 
 
Db:--------------------------------------------------------------------------| 
 
Ab:--------------------------------------------------------------------------| 
 
Eb:--------------------------------------------------------------------------| 
 
 
 
 
 
eb:---------15-17-18----------16-18-19----------17-19-20----------18-20-21-| 
 
Bb:15-16-18----------16-17-19----------17-18-20----------18-19-21----------| 
 
Gb:------------------------------------------------------------------------| 
 
Db:------------------------------------------------------------------------| 
 
Ab:------------------------------------------------------------------------| 
 
Eb:------------------------------------------------------------------------| 
 
 
 
                              vib/bar 2 times  2 times   2 times   2 
times 
eb:22b-22b-22b-22b~~--18------17b~~-*---------*---------*---------*---------| 
 
Bb:----------------------17b--20b~~-*---------*---------*---------*---------| 
 
Gb:---------------------------------*---------*---------*---------*12-14-15-| 
 
Db:---------------------------------*---------*---------*-12-13-15*---------| 
 
Ab:---------------------------------*---------*-12-14-15*---------*---------| 
 
Eb:---------------------------------*-12-13-15*---------*---------*---------| 
 
                                    pm.   .  .  .   .  .  .  .  . 
 
eb:---------------12-14-15-14-12-----------------------1717172017171722p20-| 
 
Bb:12-13-12-13-15----------------15-13-12-------15b~~----------------------| 
 
Gb:---------------------------------------14-12-14b~~----------------------| 
 
Db:------------------------------------------------------------------------| 
 
Ab:------------------------------------------------------------------------| 
 
Eb:------------------------------------------------------------------------| 
 
 
 
 
bar                    bar 
eb:17171722p2017171722p20-17b-(17~~)----------------------------22\-------18b~~| 
 
Bb:-----------------------20b-(20~~)-/20\-15b-15b-15b~~~------------------23b~~| 
 
Gb:----------------------------------------------------------------------------| 
 
Db:----------------------------------------------------------------------------| 
 
Ab:------------------------------------------------------------------7\--------| 
 
Eb:--------------------------------------------------------15\-----------------|
  development and support by
dmitry ivanov