rock
 
|tablatures   |lyrics   |discussion forums   |more tabs @ XGuitar.com

Slayer tabs

Sick Boy guitar tab

SONG: SICK BOY 
ARTIST: SLAYER 
ALBUM: UNDISPUTED ATTITUDE 
TABBED BY: DAVID LICHTER (lichter@ebox.tninet.se) 
 
 
 
 
 
 
Tune down 1/2 step 
 
 
 
 
 
Intro:  8x 
 
Eb|------------------------------------------------| 
Bb|------------------------------------------------| 
Gb|------------------------------------------------| 
Db|------------------------------------------------| 
Ab|----7-5-4-5-------------------------------------| 
Eb|--0--0-0-0--------------------------------------| 
 
 
 
 
 
Verse: 
 
      Well I'm searching through my bed... 
 
Eb|------------------------------------------------| 
Bb|------------------------------------------------| 
Gb|------------------------------------------------| 
Db|--9-9-9-9-7-9-9---------------------------------| 
Ab|--7-7-7-7-5-7-7---------------------------------| 
Eb|------------------------------------------------| 
 
 
 
 
 
Chorus: 
 
        Im a sick boy... 
Eb|------------------------------------------------| 
Bb|------------------------------------------------| 
Gb|------------------------------------------------| 
Db|-11-11-11-12-11-11--9-9-9-7-9-9-----------------| 
Ab|-9--9--9--10-9--9---7-7-7-5-7-7-----------------| 
Eb|------------------------------------------------| 
 
 
 
 
 
Verse: 
 
        Well I'm happy the way I am... 
Eb|------------------------------------------------| 
Bb|------------------------------------------------| 
Gb|------------------------------------------------| 
Db|--9-9-9-9-7-9-9---------------------------------| 
Ab|--7-7-7-7-5-7-7---------------------------------| 
Eb|------------------------------------------------| 
 
 
 
 
 
 
 
Chorus: 
 
        Im a sick boy... 
Eb|------------------------------------------------| 
Bb|------------------------------------------------| 
Gb|------------------------------------------------| 
Db|-11-11-11-12-11-11--9-9-9-7-9-9-----------------| 
Ab|-9--9--9--10-9--9---7-7-7-5-7-7-----------------| 
Eb|------------------------------------------------| 
 
 
 
 
 
 
 
       4x 
Eb|------------------------------------------------| 
Bb|------------------------------------------------| 
Gb|------------------------------------------------| 
Db|-11-9-11-12-11----------------------------------| 
Ab|-9--7-9--10-9-----------------------------------| 
Eb|------------------------------------------------| 
 
 
 
Eb|------------------------------------------------| 
Bb|------------------------------------------------| 
Gb|------------------------------------------------| 
Db|--9------9------9-------------------------------| 
Ab|--7------7------7-------------------------------| 
Eb|------------------------------------------------| 
 
 
 
 
 
Verse: 
 
      Well I'm happy the way I am... 
 
Eb|------------------------------------------------| 
Bb|------------------------------------------------| 
Gb|------------------------------------------------| 
Db|--9-9-9-9-7-9-9---------------------------------| 
Ab|--7-7-7-7-5-7-7---------------------------------| 
Eb|------------------------------------------------| 
 
 
 
 
Chorus: 
 
        Im a sick boy... 
Eb|------------------------------------------------| 
Bb|------------------------------------------------| 
Gb|------------------------------------------------| 
Db|-11-11-11-12-11-11--9-9-9-7-9-9-----------------| 
Ab|-9--9--9--10-9--9---7-7-7-5-7-7-----------------| 
Eb|------------------------------------------------| 
 
 
 
Verse: 
 
         There's assholes everywhere... 
Eb|------------------------------------------------| 
Bb|------------------------------------------------| 
Gb|------------------------------------------------| 
Db|--9-9-9-9-7-9-9---------------------------------| 
Ab|--7-7-7-7-5-7-7---------------------------------| 
Eb|------------------------------------------------| 
 
 
 
 
 
Chorus: 
 
        Im a sick boy... 
Eb|------------------------------------------------| 
Bb|------------------------------------------------| 
Gb|------------------------------------------------| 
Db|-11-11-11-12-11-11--9-9-9-7-9-9-----------------| 
Ab|-9--9--9--10-9--9---7-7-7-5-7-7-----------------| 
Eb|------------------------------------------------| 
 
 
 
 
 
I couldnt figure out the solo. 
 
 
 
 
 
Any Suggestions, comments, questions  mail me: licter@ebox.tninet.se
  development and support by
dmitry ivanov