rock
 
|tablatures   |lyrics   |discussion forums   |more tabs @ XGuitar.com

Slayer tabs

Show No Mercy guitar tab

SLAYER 
                           Show no mercy 
           Tabbed by Grzegorz Musialik (grg@perkele.giga.com.pl) 
 
  intro : drums 
 
 
e:----------------|-----------------|-----------------|---------------------| 
B:----------------|-----------------|-----------------|---------------------| 
G:----------------|-----------------|-----------------|---------------------| 
D:-9--------------|--5--------------|-----------------|---------------------| 
A:-7--------------|--3--------------|-5---------------|-7---------9---------| 
E:----------------|-----------------|-3---------------|-5---------7---------| 
 
 
 
 
  rhy fig 1 :                                            1,2,3-- 4-------- 
e:------------------------------------|--------------------------|----------| 
B:------------------------------------|--------------------------|----------| 
G:------------------------------------|--------------------------|----------| 
D:------------------------------------|-------------------7-10-9-|-12-11--7-| 
A:------------------------------------|-------------------5--8-7-|-10--9--5-| 
E:-0-0-0-0--0-0-0-0--0-0-0-0--0-0-0-0-|-0-0-0-0--0-0-0-0---------|----------| 
 
 
 
   rhy fig 1 
 
 
 
  rhy fig 2:  (play 2 times) 
e:---------------------------------|----------------------------------------| 
B:---------------------------------|----------------------------------------| 
G:---------------------------------|----------------------------------------| 
D:---------------------------------|-------------7-7------------------------| 
A:--7-9-9---7-9-9---7-5-5---7-9-9--|--7-9-9----7-5-5-----3-5-5-----7-9-9----| 
E:--5-7-7---5-7-7---5-3-3---5-7-7--|--5-7-7----5---------1-3-3-----5-7-7----| 
 
 
 
 
 
   rhy fig 1 (2 times) 
   rhy fig 2 (2 times) 
 
 
 
 
 
 
   rhy fig 3:                                          1,3----- 2,4------- 
e:----------------------------------|---------------------------|-----------| 
B:----------------------------------|---------------------------|-----------| 
G:----------------------------------|---------------------------|-----------| 
D:-9---------------9----------------|-9----------------11-12-11-|-----------| 
A:-7---------------7----------------|-7-----------------9-10--9-|--5--7-10--| 
E:----0-0--0-0-0-0----0-0--0-0-0-0--|----0-0--0-0-0-0-----------|--3--5--8--| 
 
 
   rhy fig 3 (3 times) 
 
 
 
   rhy fig 4:  (play 3 times) 
e:------------------------------------|-------------------------------------| 
B:------------------------------------|-------------------------------------| 
G:--5----------------5----------------|--3-----------------5----------------| 
D:--5----------------5----------------|--3-----------------5----------------| 
A:----3-3---3-3-3-3----3-3---3-3-3-3--|----1-1---1-1-1-1-----3-3---3-3-3-3--| 
E:------------------------------------|-------------------------------------| 
 
 
 
 
 
 
e:------------------------------------|------------------------------------| 
B:------------------------------------|------------------------------------| 
G:--5----------------5----------------|--3---------------------------------| 
D:--5----------------5----------------|--3---------------------------------| 
A:----3-3---3-3-3-3----3-3---3-3-3-3--|----1-1---1-1-1-1--2----------------| 
E:------------------------------------|-------------------0----------------| 
 
 
 
 
 
 
 
   (play 2 times) 
e:-------------------------------------|------------------------------------| 
B:-------------------------------------|------------------------------------| 
G:-------------------------------------|------------------------------------| 
D:-------------------------------------|------------------------------------| 
A:-0h2-2-2--2-2-2-2--5p2-2-2--2-2-2-2--|-0h2-2-2--2-2-2-2--5p2-2-2--2-2-2-2-| 
E:-------------------------------------|------------------------------------| 
 
                                        1------------- 2------------ 
e:-------------------------------------|---------------|--------------------| 
B:-------------------------------------|---------------|--------------------| 
G:-------------------------------------|---------------|--------------------| 
D:-------------------------------------|------7---5----|-------7---9--------| 
A:-0h2-2-2--2-2-2-2--5p2-2-2--2-2-2-2--|--2---5---3----|---2---5---7--------| 
E:-------------------------------------|--0------------|---0----------------| 
 
 
 
 
 
 
  (play 2 times) 
e:-------------------------------------|------------------------------------| 
B:-------------------------------------|------------------------------------| 
G:-------------------------------------|--------------9-9-------------------| 
D:-9-11-11---9-11-11---9-7-7---9-11-11-|--9-11-11---9-7-7---5-7-7---9-11-11-| 
A:-7--9--9---7--9--9---7-5-5---7--9--9-|--7--9--9---7-------3-5-5---7--9--9-| 
E:-------------------------------------|------------------------------------| 
 
 
 
 
 
 
  (play 2 times) 
e:--------------------------------|--------------------------------|--------- 
B:--------------------------------|--------------------------------|--------- 
G:-5---------------5--------------|-3---------------5--------------|-5------- 
D:-5---------------5--------------|-3---------------5--------------|-5------- 
A:---3-3--3-3-3-3----3-3--3-3-3-3-|---1-1--1-1-1-1----3-3--3-3-3-3-|---3-3--3 
E:--------------------------------|--------------------------------|--------- 
 
                                             1---------- 2--------------- 
e:-----------------------|-------------------------------|------------------| 
B:-----------------------|-------------------------------|------------------| 
G:--------5--------------|--3----------------------------|------------------| 
D:--------5--------------|--3--------------------7---7---|------------------| 
A:-3-3-3----3-3--3-3-3-3-|----1-1---1-1-1-1---1--5---5---|----2---2--2------| 
E:-----------------------|-------------------------------|----0---0--0------| 
 
 
 
 
 
                                                        1,3------ 2------- 
e:------------------------------------|---------------------------|---------| 
B:------------------------------------|---------------------------|---------| 
G:------------------------------------|---------------------------|---------| 
D:-7\9---------------7\9--------------|-7\9--------------11-12-11-|---------| 
A:-5\7---------------5\7--------------|-5\7---------------9-10--9-|-5--7-10-| 
E:-----0-0--0-0-0-0------0-0--0-0-0-0-|-----0-0--0-0-0-0----------|-3--5--8-| 
 
 
   4-------------------------------- 
e:------------------------------------|-------------------------------------| 
B:------------------------------------|-------------------------------------| 
G:------------------------------------|-------------------------------------| 
D:-----5---4-----5---4------5---4-----|-------------------------------------| 
A:--5--3---2--5--3---2--5---3---2--2--|-(2)---------------------------------| 
E:--3---------3---------3----------0--|-(0)---------------------------------| 
 
 
  Send corrections, thanks, flames etc. to : grg@perkele.giga.com.pl 
 
 
 
 
 
 
 
 
 
 
 
 
 
 
 
 
 
 
 
 
 
 
 
show no mercy (solo) 
album: show no mercy 
slayer 
 
tabbed by Rudy Guzman 
 
                                                     play 3 times 
e:-------------------------20b-----17-----17-----17-*----------------| 
B:-20b-20b-20b-20b-20b-20b-----20b----20b----20b----*-20p17-20p17----| 
G:--------------------------------------------------*-------------19-| 
D:--------------------------------------------------*----------------| 
A:--------------------------------------------------*----------------| 
E:--------------------------------------------------*----------------| 
 
 
 
 
e:---------------------------------------------------------------------| 
B:20b-17h20p17-16h19p16-15h18p15-14h17p14-13h16p13-12h15p12------------| 
G:----------------------------------------------------------14-12-14-12| 
D:---------------------------------------------------------------------| 
A:---------------------------------------------------------------------| 
E:---------------------------------------------------------------------| 
       N.H. 
e:---------------------------------------------------------------------| 
B:---------------------------------------------------------------------| 
G:-----9~~~------7------------------------------------------12-14-12-14| 
D:14b--------9-8---9-8--------------------------12-14-12-14------------| 
A:----------------------------------12-14-12-14------------------------| 
E:----------------------12-15-12-15------------------------------------| 
 
 
e:---------------------------------------------------------------------| 
B:------------------------12-13-12-13-12-13-13-13b-13b-----------------| 
G:------------12-14-12-14----------------------------------------------| 
D:12-14-12-14----------------------------------------------------------| 
A:------------------------------------------------------------------14-| 
E:------------------------------------------------------14-17-14-17----| 
 
 
                                                             6 times 
e:--------------------------------------------------------*---14-17-14*---| 
B:---------------------------------14-15-14-15-14-15-14-15*17---------*17b| 
G:---------------------14-16-14-16------------------------*-----------*---| 
D:---------14-16-14-16------------------------------------*-----------*---| 
A:16-14-16------------------------------------------------*-----------*---| 
E:--------------------------------------------------------*-----------*---|
  development and support by
dmitry ivanov