rock
 
|tablatures   |lyrics   |discussion forums   |more tabs @ XGuitar.com

Slayer tabs

Show No Mercy bass tab

Band: Slayer
Song: Show No Mercy
Album: Show No Mercy
Year: 1983
Tabbed By David Siddons (farmer_siddons@hotmail.com)

Riff 1:
G|-----------------------|
D|-----------------------|
A|-7----3----------------|
E|-----------3----5----7-|

Riff 2:                                                  [4th Time]
G|-------------------------------------------------------|--------|
D|-------------------------------------------------------|--------|
A|-------------------------------------------------5-8-7-|-10-9-5-|
E|-0-0-0-0-0-0-0-0-0-0-0-0-0-0-0-0-0-0-0-0-0-0-0-0-------|--------|

Riff 3:
G|-------------------------------|-------------------------------|
D|-------------------------------|-------------------------------|
A|-------------------------------|-----------5-5-----------------|
E|-5-7-7---5-7-7---5-3-3---5-7-7-|-5-7-7---5-------1-3-3---5-7-7-|

Riff 4:                              [1st/3rd]                   [2nd/4th]
G|----------------------------------|---------------------------|-----------|
D|----------------------------------|---------------------------|-----------|
A|-7---------------7----------------|-7-----------------9-10--9-|-----------|
E|----0-0--0-0-0-0----0-0--0-0-0-0--|----0-0--0-0-0-0-----------|--3--5--8--|

Riff 5:
G|------------------------------------|-------------------------------------|
D|--5----------------5----------------|--3-----------------5----------------|
A|----3-3---3-3-3-3----3-3---3-3-3-3--|----1-1---1-1-1-1-----3-3---3-3-3-3--|
E|------------------------------------|-------------------------------------|

G|------------------------------------|---------------------|
D|--5----------------5----------------|--3------------------|
A|----3-3---3-3-3-3----3-3---3-3-3-3--|----1-1---1-1-1-1----|
E|------------------------------------|-------------------0-|

Riff 6:
G|-------------------------------------|------------------------------------|
D|-------------------------------------|------------------------------------|
A|-0h2-2-2--2-2-2-2--5p2-2-2--2-2-2-2--|-0h2-2-2--2-2-2-2--5p2-2-2--2-2-2-2-|
E|-------------------------------------|------------------------------------|

G|-------------------------------------|---------------|-------------|
D|-------------------------------------|---------------|-------------|
A|-0h2-2-2--2-2-2-2--5p2-2-2--2-2-2-2--|------5---3----|-------5---7-|
E|-------------------------------------|--0------------|---0---------|

Riff 7:
G|-------------------------------------|------------------------------------|
D|-------------------------------------|--------------7-7-------------------|
A|-7--9--9---7--9--9---7-5-5---7--9--9-|--7--9--9---7-------3-5-5---7--9--9-|
E|-------------------------------------|------------------------------------|

Riff 8:
G|-----------------------|-------------------------------|------------------|
D|--------5--------------|--3----------------------------|------------------|
A|-3-3-3----3-3--3-3-3-3-|----1-1---1-1-1-1---1--5---5---|------------------|
E|-----------------------|-------------------------------|----0---0--0------|

Riff 9:
G|------------------------------------|---------------------------|---------|---------|
D|------------------------------------|---------------------------|---------|---------|
A|-5\\7---------------5\\7--------------|-5\\7---------------9-10--9-|---------|-9-10--9-|
E|-----0-0--0-0-0-0------0-0--0-0-0-0-|-----0-0--0-0-0-0----------|-3--5--8-|---------|

Riff 10:
G|------------------------------------|-----|
D|------------------------------------|-----|
A|-----3---2-----3---2------3---2-----|-----|
E|--3---------3---------3----------0--|-(0)-|

Playlist:
Riff 1  x1
Riff 2  x8
Riff 3  x2
Riff 2  x8
Riff 3  x2
Riff 4  x3
Riff 5  x4
Riff 6  x2
Riff 7  x2
Riff 5  x
Riff 8  x1
Riff 9  x1
Riff 10 x1
  development and support by
dmitry ivanov