rock
 
|tablatures   |lyrics   |discussion forums   |more tabs @ XGuitar.com

Slayer tabs

Seven Faces guitar tab

Author/Artist: Slayer
Title: Seven Faces
Album: God Hates Us All
Transcribed by: Mike Macdonald
Email: the_outlaw_torn_69@hotmail.com

|------------|----------|--------------------------------------------------|
|------------|----------|--------------------------------------------------|
|------------|----------|--------------------------------------------------|
|---7--------|---7------|--------------------------------------------------|
|-----7-8----|-----7-8-7|--------------------------------------------------|
|-0----------|-0--------|--------------------------------------------------|
  Intro (clean tone w/flanger)

|--------------------------------------------------------------------------|
|--------------------------------------------------------------------------|
|--------------------------------------------------------------------------|
|-7----6-----3----6--3--6--3-----------------------------------------------|
|-7----6-----3----6--3--6--3-----------------------------------------------|
|-5----4-----1----4--1--4--1-----------------------------------------------|
  Riff 2

|-------------------|----------------|-----------------|-------------------|
|-------------------|----------------|-----------------|-------------------|
|-------------------|----------------|-----------------|-------------------|
|-------------------|----------------|-----------------|-------------3-----|
|-------------------|----------------|-----------------|-------------3-----|
|-3-1-0-1-4-3--0-1--|-0-3-0-1-4-3-0-1|-3-1-0-1-4-3-0-1-|-0-3-0-1-4-3-1-----|
  Main riff and verse

|-------------------|----------------|-----------------|-------------------|
|-------------------|----------------|-----------------|-------------------|
|-------------------|----------------|-----------------|-------------------|
|-------------------|----------------|-----------------|----------3---3----|
|-------------------|----------------|-----------------|----------3---3----|
|-3-1-0-1-4-3--0-1--|-0-3-0-1-4-3-0-1|-3-1-0-1-4-3-0-1-|-0-3-0-1--1---1----|
  Main riff and verse (cont)

|-------------|---------------|---------|----------------------------------|
|-------------|---------------|---------|----------------------------------|
|-------------|---------------|---------|----------------------------------|
|-------------|---------------|-4x------|----------------------------------|
|-2-4--3--2---|-----5-4--3----|---------|----------------------------------|
|-0-2--1--0---|-0-0-3-2--1----|---------|----------------------------------|
  Lost within myself

|-----------|---------------|----------|--------------|---|----------------|
|-----------|---------------|----------|--------------|---|----------------|
|-----------|---------------|----------|--------------|---|----------------|
|-----------|---------------|----------|--------------|-2x|----------------|
|-2-4-3--2--|-----4-3-2-----|-2-4-3-2--|-----5-4-3----|---|----------------|
|-0-2-1--0--|-0-0-2-1-0-----|-0-2-1-0--|-0-0-3-2-1----|---|----------------|
  My life came with it's own scars   (riff 5)

|-------------------------------------|------|-----|-----------------------|
|-------------------------------------|------|-----|-----------------------|
|-------------------------------------|------|-----|-----------------------|
|-----8---7---------5--5-------3--3---|-4x---|-2---|-----------------------|
|-2---8---7----2----5--5---2---3--3---|------|-2---|-----------------------|
|-0---6---5----0----3--3---0---1--1---|------|-0---|-----------------------|
  Everyday I look at the mirror                  Play intro then riff 5 solo

As with a lot of solos on this album, this one is bull***, and I couldn’t be bothered tabbing it. I suggest you make up your own solo. If I get around to it, ill make my own solo and post it later

|--|-----------|----------|------------------------------------------------|
|--|-----------|----------|------------------------------------------------|
|--|-----------|-5-5-5-5--|------------------------------------------------|
|--|-3-3-3-3---|-5-5-5-5--|------------------------------------------------|
|--|-3-3-3-3---|-3-3-3-3--|------------------------------------------------|
|--|-1-1-1-1---|-3-3-3-3--|------------------------------------------------|
 End King       Hanneman         I'll post my solo later.
  development and support by
dmitry ivanov