rock
 
|tablatures   |lyrics   |discussion forums   |more tabs @ XGuitar.com

Slayer tabs

Scrum bass tab

SONG: Scrum                     ARTIST: Slayer

ALBUM: Diabolus in musica


Gb|----------------------|
Db|----------------------|
Ab|----------------------|
Eb|--0-0-0-0-0-0-0-0-0-0-|

Gb|--------------------|
Db|--------------------|
Ab|----2-1-0-------3---|
Eb|--0-------2-1-0-----|

Gb|---------------------|-----|
Db|---------------------|-----|
Ab|---------------------|-----|
Eb|--0-0-0-0-0-0-0-0-0--|-2---|

Gb|------------------|
Db|------------------|
Ab|------------------|
Eb|--3----------413--|

Gb|------------------------------|----|
Db|------------------------------|----|
Ab|------------------------------|----|
Eb|-4133333333333333333333333333-|-41-|

Gb|-------------------------------------------------------------------|
Db|-------------------------------------------------------------------|
Ab|-------------------------------------------------------------------|2X
Eb|--0-00000-0-00000-1-00000-1-00000-4-00000-4-00000-3-00000-3-00000--|

Gb|------------------------------------------------------------------|---|
Db|------------------------------------------------------------------|---|
Ab|----------2-------1-------0-------------------------------3-------|---|
Eb|--0-00000---00000---00000---00000-2-00000-1-00000-0-00000---00000-|3--|

  solo
Gb|-------------------|------------------|
Db|-------------------|------------------|
Ab|-------------------|------------------|
Eb|--22222222222-3-0--|--2222222222-3-5--|
                    3X

Gb|------------------------------------------|
Db|-----------------76-------------------87--|
Ab|------87-------------------87-------------|
Eb|--0760---000-769----000-760---000-769-----|
  development and support by
dmitry ivanov