rock
 
|tablatures   |lyrics   |discussion forums   |more tabs @ XGuitar.com

Slayer tabs

Richard Hung Himself guitar tab

SONG: Richard Hung Himself 
ARTIST: Slayer 
ALBUM: Undisputed Attitude 
TABBED BY: David Lichter (lichter@ebox.tninet.se) 
 
 
 
Tune down 1/2 step 
 
Intro: 
Eb|-----------------------------------------------------| 
Bb|-----------------------------------------------------| 
Gb|-----------------------------------------------------| 
Db|----2-3----------------------------------------------| 
Ab|--2--------------------------------------------------| 
Eb|-----------------------------------------------------| 
 
 
Verse:   
       Needles stabbed into the walls... 
Eb|-----------------------------------------------------| 
Bb|-----------------------------------------------------| 
Gb|-----------------------------------------------------| 
Db|-----------------------------------------------------| 
Ab|--4-4---7-7---6-6----2-2-2--------------------------| 
Eb|--2-2---5-5---4-4----0-0-0--------------------------| 
 
 
 
Chorus: 
     Cause Richard hung himself  Richard Hung...  
Eb|-----------------------------------------------------| 
Bb|-----------------------------------------------------|   
Gb|-----------------------------------------------------| 
Db|-----------------------------------------------------| 
Ab|--4-4-4--2-2-2--4-4-4-4--4--2-2-2-2-2-3-4------------|    
Eb|--2-2-2--0-0-0--2-2-2-2--2--0-0-0-0-0-1-2------------| 
 
    He thought he find a better way with slashing... 
Eb|-----------------------------------------------------| 
Bb|-----------------------------------------------------| 
Gb|-----------------------------------------------------| 
Db|-----------------------------------------------------|<- Not 100% sure on this part  
Ab|--2-2-2-2-2-2-2-2-3--4-3--4-4-3-2--4-4-3-2--4-4-3-2--| 
Eb|--0-0-0-0-0-0-0-0-1--2-1--2-2-1-0--2-2-1-0--2-2-1-0--| 
 
Verse: 
       Death room with black curtains... 
Eb|-----------------------------------------------------| 
Bb|-----------------------------------------------------| 
Gb|-----------------------------------------------------| 
Db|-----------------------------------------------------| 
Ab|--4-4---7-7---6-6----2-2-2---------------------------| 
Eb|--2-2---5-5---4-4----0-0-0---------------------------| 
 
 
Chorus: 
     Cause Richard hung himself  Richard Hung...  
Eb|-----------------------------------------------------| 
Bb|-----------------------------------------------------|   
Gb|-----------------------------------------------------| 
Db|-----------------------------------------------------| 
Ab|--4-4-4--2-2-2--4-4-4-4--4--2-2-2-2-2-3-4------------|    
Eb|--2-2-2--0-0-0--2-2-2-2--2--0-0-0-0-0-1-2------------| 
 
    He thought he find a better way with needles... 
Eb|-----------------------------------------------------| 
Bb|-----------------------------------------------------| 
Gb|-----------------------------------------------------| 
Db|-----------------------------------------------------|<- Not 100% sure on this part  
Ab|--2-2-2-2-2-2-2-2-3--4-3--4-4-3-2--4-4-3-2--4-4-3-2--| 
Eb|--0-0-0-0-0-0-0-0-1--2-1--2-2-1-0--2-2-1-0--2-2-1-0--| 
 
                    His life suddenly flashed... 
Eb|-----------------------------------------------------| 
Bb|-----------------------------------------------------| 
Gb|-----------------------------------------------------| 
Db|-----------------------------------------------------| 
Ab|--4-4---7-7---6-6----2-2-----------------------------| 
Eb|--2-2---5-5---4-4----0-0-----------------------------| 
 
  4x          ...right before his eyes...             
Eb|-----------------------------------------------------| 
Bb|-----------------------------------------------------| 
Gb|-----------------------------------------------------| 
Db|--4-4-4-4-4------------------------------------------| 
Ab|--2-2-2-2-2------------------------------------------| 
Eb|-----------------------------------------------------| 
 
             Give it up give up... 
Eb|-----------------------------------------------------| 
Bb|-----------------------------------------------------| 
Gb|-----------------------------------------------------| 
Db|-----------------------------------------------------| 
Ab|-----------------------------------------------------| 
Eb|--2-1-0--2-1-0--21-0--2-1-0--2-1-0--21-0-------------| 
 
    4x     Burning acid bath... 
Eb|-----------------------------------------------------| 
Bb|-----------------------------------------------------| 
Gb|-----------------------------------------------------| 
Db|--4-4-4-4-4------------------------------------------| 
Ab|--2-2-2-2-2------------------------------------------| 
Eb|-----------------------------------------------------| 
 
   8x            Throw it all away... 
Eb|-----------------------------------------------------| 
Bb|-----------------------------------------------------| 
Gb|-----------------------------------------------------| 
Db|-----------------------------------------------------| 
Ab|-----------------------------------------------------| 
Eb|--2-2--1--0------------------------------------------| 
 
Verse: 
       Swinging in his room...        Palm Mute 
Eb|-----------------------------------------------------| 
Bb|-----------------------------------------------------| 
Gb|-----------------------------------------------------| 
Db|-----------------------------------------------------| 
Ab|--4-4-4--7-7-7--6-6-6---2-2-2------------------------| 
Eb|--2-2-2--5-5-5--4-4-4---0-0-0------------------------| 
 
Chorus: 
        Cause Richard hung himself  Richard Hung...  
Eb|-----------------------------------------------------| 
Bb|-----------------------------------------------------|   
Gb|-----------------------------------------------------| 
Db|-----------------------------------------------------| 
Ab|--4-4-4--2-2-2--4-4-4-4--4--2-2-2-2-2-3-4------------|    
Eb|--2-2-2--0-0-0--2-2-2-2--2--0-0-0-0-0-1-2------------| 
 
 
    He thought he find a better way with slashing...   play this a few times. 
Eb|-----------------------------------------------------| 
Bb|-----------------------------------------------------|   
Gb|-----------------------------------------------------| 
Db|----11-11--10-10--9-9-9-9----------------------------| 
Ab|----9--9---8--8---7-7-7-7----------------------------|    
Eb|-----------------------------------------------------| 
 
Play this to end.                Palm Mute 
Eb|-----------------------------------------------------| 
Bb|-----------------------------------------------------| 
Gb|-----------------------------------------------------| 
Db|-----------------------------------------------------| 
Ab|--4-4-4--7-7-7--6-6-6---2-2-2------------------------| 
Eb|--2-2-2--5-5-5--4-4-4---0-0-0------------------------| 
 
 
 
 
Any comments, questions E-mail me at: lichter@ebox.tninet.se
  development and support by
dmitry ivanov