rock
 
|tablatures   |lyrics   |discussion forums   |more tabs @ XGuitar.com

Slayer tabs

Reborn guitar tab

SLAYER 
                              R E B O R N 
                From their thrashterpiece 'Reign in Blood' 
 
Tabbed by:      Jason Mathie 
                Mathie@unixg.ubc.ca 
 
The only tune on this album I haven't seen a tab for. 
 
Comments: 
 
Only the two low strings required for the riffs in this song. 
 
I won't bother specifying palm muting.  Just use light palm muting on  
the double picked sixteenth notes. 
 
No leads. 
 
As usual, guitars are tuned to Eb.  Hanneman has the left stereo channel. 
When I show both guitars playing at once, Hanneman is on the top. 
 
Generally one dash is a sixteenth note in length.  So ---- is one beat. 
In the case of that making a riff look cramped, I'll use 8 dashs to one 
beat instead. 
-=-=-=-=-=-=-=-=-=-=-=-=-=-=-=-=-=-=-=-=-=-=-=-=-=-=-==-=-=-=-=-=-=-=- 
Starting Tempo: 130 bpm 
 
Intro Riff 
Ab|2-----------------------4-5-----|----------------5-------5-8-----| 
Eb|0-----------------------2-3-----|----------------3-------3-6-----| 
  |                                |                                | 
Ab|2-------9\8-----4-------4-5-----|2-------9\8-----5-------5-8-----| 
Eb|0---0-0-7\6-0-0-2---0-0-2-3-----|0---0-0-7\6-0-0-3---0-0-3-6-----| 
 
Riff A 
Ab|2-------9\8-----4-------4-5-----|2-------9\8-----5-------5-8-----| 
Eb|0---0-0-7\6-0-0-2---0-0-2-3-----|0---0-0-7\6-0-0-3---0-0-3-6-----| 
 
Play Intro Riff 
Play Riff A 3x 
 
Then play: 
Ab|----------------|------------8---| 
Eb|222222222-2-3-3-|222222222-0-6---| 
  |                |                | 
Ab|------------5-5-|------------8---| 
Eb|------------3-3-|------------6---| 
 
Riff B 
Ab|----------------|------------8---| 
Eb|222222222-2-3-3-|222222222-0-6---| 
 
Increase tempo to 220 bpm 
Play Riff B 3x 
 
Riff C 
Ab|----------------|----------------| 
Eb|00000-0-4-0-3-0-|00000-0-3-0-2-0-| 
 
Play Riff C 4x with lyrics: 
 
  Convicted witch my life will end 
  At midnight on the stake 
  My dedicated life was spent 
  To insubordinate 
  Secured by lock inside a cell 
  Imprisoned for no crime 
  These shackles will be useless 
  When your life is out of time 
 
Riff D 
Ab|----------------|------------5---|----------------|------------9---| 
Eb|1111111155555555|444444444-0-3---|1111111155555555|444444444-0-7---| 
 
Play Riff D 4x with lyrics: 
 
  Incantation spell gone by 
  I will see life again 
  My deals will be made eternally 
  I signed the book of red 
  My rage will be unleashed again 
  Burning the next morn 
  Death means nothing, there is no end 
  I will be reborn 
 
Play Riff B 2x 
Play Riff C 4x with lyrics: 
 
  No gift of exile in my fate 
  I'll get no amnesty 
  You can't control my destiny 
  There is no habitual need 
  Proclaim my death, to end my wrath 
  It takes more than one try 
  Indulge your ineffective cause 
  I will never die 
 
Play Riff D 2x with lyrics: 
 
  You think by killing me tonight 
  My powers will not rise 
  There'll be nowhere for you to run 
  When my hatred comes to life 
  Condemned to fill the prophecy 
  Allowing no first born 
  Defy your morbid declaration 
  Leave you ripped and torn 
 
Then play:   (Hanneman plays some variation on this riff 
              but I can't figure out exactly what it is) 
Ab|----------------|------------8---|----------------|------------8---| 
Eb|222222222-2-3-3-|222222222-0-6---|222222222-2-3-3-|222222222-0-6---| 
  |                |                |                |                | 
Ab|----------------|----------------|------------5-5-|------------8---| 
Eb|----------------|----------------|------------3-3-|------------6---| 
 
Play Riff B 2x 
 
Riff E 
Ab|----------------|------------7----| 
Eb|4444444488888888|7777777777--5----| 
 
RightGtr plays Riff E 4x while LeftGtr solos, in typical form 
 
Riff F 
Ab|----------------|------------4---| 
Eb|0000000011111111|444444443-0-2---| 
 
RightGtr plays Riff F 4x while LeftGtr continues soloing 
 
Play Riff B 6x, with lyrics on last 4x: 
 
  Count your blessings would be priest 
  As I burn upon the stake 
  You'd be forgiven endlessly 
  But your values are all fake 
  Forever servant of my lord 
  By choice and not submission 
  Maybe now I've made you wonder 
  Am I superstition 
 
Play Riff D 2x, with lyrics as before: 
 
  Incantation spell gone by 
  I will see... 
 
Riff G 
   /=3=\ /=3=\ /=3=\ /=3=\ 
Ab|------------------------| 
Eb|3-3-2-5-2-2-3-3-2-5-2-2-| 
 
Play Riff G 8x 
RightGtr plays Riff F 5x while LeftGtr solos 
-=-=-=-=-=-=-=-=-=-=-=-=-=-=-=-=-=-=-=-=-=-=-=-=-=-=-==-=-=-=-=-=-=-=- 
E-mail me with any concerns, questions, requests, corrections... 
 
      Mathie@unixg.ubc.ca 
 
 
 
 
 
 
 
 
 
 
 
 
 
 
 
 
 
 
 
 
 
 
 
 
 
 
 
 
REBORN 
ALBUM: REIGN IN BLOOD 
SLAYER 
 
TABBED BY: RUDY GUZMAN 
 
   gt1                repeat 5 times 
eb:|------------------------------------------| 
Bb:|------------------------------------------| 
Gb:|------------------------------------------| 
Db:|--------4/3------------------4/3----------| 
Ab:|-2------2/1---4--4-5--2------2/1---4--4-8-| 
Eb:|-0--0-0-----0-2--2-3--0--0-0-----0-2--2-6-| 
    pm  . .     .              . .     . 
 
  gt2 
eb:-------------------------------------------| 
Bb:-------------------------------------------| 
Gb:-------------------------------------------| 
Db:-------------------------------------------| 
Ab:--2------------4--4-5--2-----------4--4-8--| 
Eb:--0------------2--2-3--0-----------2--2-6--| 
 
 
                    convicted witch my life will end.... 
  gt1 repeat 4 times                        repeat 4 times 
eb:----------------|-------------------------------------| 
Bb:----------------|-------------------------------------| 
Gb:----------------|-------------------------------------| 
Db:----------------|-------------------------------------| 
Ab:------------8---|-------------------------------------| 
Eb:-2222332222-6---|-0-0-0-0-0-0-3h5h6p5p3-0-0-0-0-0-3-2-| 
  pm..........       . . . . . .           . . . . . 
 
  gt2 
eb:----------------| 
Bb:----------------| 
Gb:----------------| 
Db:----------------| 
Ab:-4---5-4----8---| 
Eb:-2---3-2----6---| 
 
 
 incantation spell... 
       repeat 5 times    repeat 2 times 
eb:------------------|----------------| 
Bb:------------------|----------------| 
Gb:------------------|----------------| 
Db:------------------|----------------| 
Ab:----------------4-|--------------8-| 
Eb:-1111-4444-3333-2-|-222222332222-6-| 
  pm.... .... ....     ............ 
 
  no gift exile in my fate...            you think by killing me 
tonight... 
                          repeat 2 times    repeat 4 times 
eb:--------------------------------------|------------------| 
Bb:--------------------------------------|------------------| 
Gb:--------------------------------------|------------------| 
Db:--------------------------------------|------------------| 
Ab:--------------------------------------|----------------4-| 
Eb:-0-0-0-0-0-0-3h5h6p5p3-0-0-0-0-0-3-2--|-1111-4444-3333-2-| 
  pm. . . . . .           . . . . .        .... .... .... 
 
 
   repeat 4 times   play this under the solo 
eb:----------------|-----------------------| 
Bb:----------------|-----------------------| 
Gb:----------------|-----------------------| 
Db:----------------|-----------------------| 
Ab:--------------8-|-----------------------| 
Eb:-222222332222-6-|-4444-8888-7777--------| 
pm  ...........    pm.... .... .... 
 
solo 
eb:-12-13-15-13-12---------------------------------| 
Bb:----------------15-13-12-13-15-13-12------------| 
Gb:-------------------------------------14-12-14b--| 
Db:------------------------------------------------| 
Ab:------------------------------------------------| 
Eb:------------------------------------------------| 
 
 
 
eb:---------------------------------------------------------| 
Bb:---------------------------------------------------------| 
Gb:-12-13-15p13p12------------------------------------------| 
Db:----------------15-12-13-15-13-12------------------------| 
Ab:----------------------------------15p13-12-15p12-11~~~---| 
Eb:---------------------------------------------------------| 
 
 
 
eb:--------------------------------------------------------------------------| 
 
Bb:--------------------------------------------------------------------------| 
 
Gb:----------------------------12-14b-----3b~~~~-2-3-2-3-5p3p2---------------| 
 
Db:-------------------12-13-15---------------------------------5-2-2h3p2-2~~-| 
 
Ab:-11-12-14-12-13-15--------------------------------------------------------| 
 
Eb:--------------------------------------------------------------------------| 
 
 
 
 
eb:----------------------77-88-10-8------------14-15-17-15-14-------------| 
 
Bb:-----------------------------------16-17-19----------------17-14-15-14-| 
 
Gb:-----------9h10-10h11--------------------------------------------------| 
 
Db:----9h11p9-------------------------------------------------------------| 
 
Ab:-11--------------------------------------------------------------------| 
 
Eb:-----------------------------------------------------------------------| 
 
 
 
 
eb:--------------------22b~-19h22p19------------------------| 
Bb:---------------22b~---------------20-22b-----------------| 
Gb:-16-14-16b~~~------------------------21b-19h21p19--------| 
Db:--------------------------------------------------21~~~--| 
Ab:---------------------------------------------------------| 
Eb:---------------------------------------------------------| 
 
 
                                       note:i don't no if is 15 times to 
repeat. 
                                            if this is isn't right keep 
going and 
 count your blessing.. incantation spell..  finish when the solo start 
playing. 
    repeat 4 times     repeat 4 times  repeat 15 times 
eb:-----------------*-----------------*-----------------| 
Bb:-----------------*-----------------*-----------------| 
Gb:-----------------*-----------------*-----------------| 
Db:-----------------*-----------------*-----------------| 
Ab:---------------8-*----------------4*-----------------| 
Eb:-2222223322222-6-*-1111-4444-3333-2*-222-5p3p2-------| 
 pm .............     .... .... ....    ... 
 
   play this under the solo 
eb:------------------------------------------------------| 
Bb:------------------------------------------------------| 
Gb:------------------------------------------------------| 
Db:------------------------------------------------------| 
Ab:------------------------------------------------------| 
Eb:-4444-8888-7777---------------------------------------| 
  pm.... .... .... 
 
solo 
eb:-21b-21b-21-19h21p19-18h19p18-16h17p16-15h17p15-14h15p14-12-13-15-13-12-| 
 
Bb:------------------------------------------------------------------------| 
 
Gb:------------------------------------------------------------------------| 
 
Db:------------------------------------------------------------------------| 
 
Ab:------------------------------------------------------------------------| 
 
Eb:------------------------------------------------------------------------| 
 
 
 
 
eb:-----------------------------------------------| 
Bb:-15-12-13-15-13-12h13p12-----------------------| 
Gb:-------------------------14-12--14p12----------| 
Db:--------------------------------------14p12----| 
Ab:--------------------------------------------15-| 
Eb:-----------------------------------------------| 
 
 
                                 bar      bar 
eb:--------------------------------------------------| 
Bb:--------------------------------------0-----------| 
Gb:-3b--3b-2h3h5p3p2-0h2h3p2p0--------0--------------| 
Db:------------------------------0-------------------| 
Ab:--------------------------------------------------| 
Eb:--------------------------------------------------| 
 
 
 
 
 
eb:-----------------------------| 
Bb:-----------------------------| 
Gb:-----------------------------| 
Db:-----------------------------| 
Ab:-8---------------------------| 
Eb:-6---------------------------|
  development and support by
dmitry ivanov