rock
 
|tablatures   |lyrics   |discussion forums   |more tabs @ XGuitar.com

Slayer tabs

Reborn bass tab

Band: Slayer
Song: Reborn
Album: Reign in Blood
Year: 1986
Tabbed By David Siddons (farmer_siddons@hotmail.com)

Riff 1:
Gb|--------------------------------|--------------------------------|
Db|--------------------------------|--------------------------------|
Ab|--------------------------------|--------------------------------|
Eb|0-----------------------2-3-----|----------------3-------3-6-----|

Riff 2:
Gb|--------------------------------|--------------------------------|
Db|--------------------------------|--------------------------------|
Ab|--------------------------------|--------------------------------|
Eb|0---0-0-7\\6-0-0-2---0-0-2-3-----|0---0-0-7\\6-0-0-3---0-0-3-6-----|

Riff 3:
Gb|----------------|----------------|
Db|----------------|----------------|
Ab|----------------|----------------|
Eb|222222222-2-3-3-|222222222-0-6---|

Riff 4:
Gb|----------------|----------------|
Db|----------------|----------------|
Ab|----------------|----------------|
Eb|00000-0-4-0-3-0-|00000-0-3-0-2-0-|

Riff 5:
Gb|----------------|----------------|----------------|----------------|
Db|----------------|----------------|----------------|----------------|
Ab|----------------|----------------|----------------|----------------|
Eb|1111111155555555|444444444-0-3---|1111111155555555|444444444-0-7---|

Riff 6:
Gb|----------------|----------------|----------------|----------------|
Db|----------------|----------------|----------------|----------------|
Ab|----------------|----------------|----------------|----------------|
Eb|----------------|----------------|------------3-3-|------------6---|

Riff 7:
Gb|----------------|-----------------|
Db|----------------|-----------------|
Ab|----------------|-----------------|
Eb|4444444488888888|7777777777--5----|

Riff 8:
Gb|----------------|----------------|
Db|----------------|----------------|
Ab|----------------|----------------|
Eb|0000000011111111|444444443-0-2---|

Riff 9:
Gb|------------------------|
Db|------------------------|
Ab|------------------------|
Eb|3-3-2-5-2-2-3-3-2-5-2-2-|

Playlist:
Riff 1 x1
Riff 2 x3
Riff 3 x3
Riff 4 x4
Riff 5 x4
Riff 3 x2
Riff 4 x4
Riff 5 x2
Riff 6 x1
Riff 3 x2
Riff 7 x4
Riff 8 x4
Riff 3 x6
Riff 5 x2
Riff 9 x8
  development and support by
dmitry ivanov