rock
 
|tablatures   |lyrics   |discussion forums   |more tabs @ XGuitar.com

Slayer tabs

Praise Of Death guitar tab

PRAISE OF DEATH 
ALBUM: HELL AWAITS 
SLAYER 
 
TRANSCRIBED BY RUDY GUZMAN 
 
    
    play 4 times   
eb:|----------------------------------------------------| 
Bb:|----------------------------------------------------| 
Gb:|----------------------------------------------------| 
Db:|------------------------------------------------7-6-| 
Ab:|6----------5---------6------5-----6---------5-4-----| 
Eb:|--33333333---3333333---3333---333-----0-5-6---------| 
 
 
                                        play 4 times 
:---------------------------------*----------------------------------------| 
:---------------------------------*----------------------------------------| 
:---------------------------------*----------------------------------------| 
:-7-6-----6-5-----5-4-----4-3-----*----------4--------5--------7-----------| 
:-----7-6-----6-5-----5-4-----4-3-*-2--------2--------3--------5--------6\-| 
:---------------------------------*-0-000000---000000---000000---000000-4\-| 
 
 
 
:------------------------------------------------------------------| 
:------------------------------------------------------------------| 
:------------------------------------------------------------------| 
:------------------------------------------------------------------| 
:---------9-10-9---------6-7-6---------9-10-9---------10-9-8-9-8-7-| 
:-4444444-7-8--7-4444444-4-5-4-4444444-7-8--7-4444444-8--7-6-7-6-5-| 
 
 
 
 
    play 4 times   
eb:|----------------------------------------------------| 
Bb:|----------------------------------------------------| 
Gb:|----------------------------------------------------| 
Db:|------------------------------------------------7-6-| 
Ab:|6----------5---------6------5-----6---------5-4-----| 
Eb:|--33333333---3333333---3333---333-----0-5-6---------| 
 
 
 
 
    play 4 times 
:----------------------------------------| 
:----------------------------------------| 
:----------------------------------------| 
:----------4--------5--------7-----------| 
:-2--------2--------3--------5--------6\-| 
:-0-000000---000000---000000---000000-4\-| 
 
 
:------------------------------------------------------------------| 
:------------------------------------------------------------------| 
:------------------------------------------------------------------| 
:------------------------------------------------------------------| 
:---------9-10-9---------6-7-6---------9-10-9---------10-9-8-9-8-7-| 
:-4444444-7-8--7-4444444-4-5-4-4444444-7-8--7-4444444-8--7-6-7-6-5-| 
 
 
 
:---------------------------------------------------------| 
:---------------------------------------------------------| 
:---------------------------------------------------------| 
:----------------5-4---4--(4)-(4)-------------------------| 
:-0-3p2p0--7-5p4-------4--(4)-(4)-------------------------| 
:----------------------2--(2)-(2)-------------------------| 
 
 
solo 1                                                                                                                        
:-20b-20b~~~~-17-19-20-----------------------------------------------------------------| 
:----------------------20-17-19-20-----------------------------------16-19p16-19p16----| 
:----------------------------------19-16-17-19-17-16-------16-17-19-----------------18-| 
:----------------------------------------------------19-17-----------------------------| 
:--------------------------------------------------------------------------------------| 
:--------------------------------------------------------------------------------------| 
 
 
:--------------------------------------------------------------------------22b\-| 
:19p16-19p16----19-16-19-16-----------------------------------------------------| 
:------------18-------------19-16-17-19-17-16-17-16-----------------------------| 
:---------------------------------------------------19-17-16-17-19-16-17--------| 
:-------------------------------------------------------------------------------| 
:-------------------------------------------------------------------------------| 
 
 
  play 8 times                    solo 2 
:--------------------------------|--------------19-22-19----19-22-19-etc-| 
:--------------------------------|-18b-------21----------21--------------| 
:--------------------------------|-22b-22b-------------------------------| 
:--------------------------------|---------------------------------------| 
:2-------------3-----5-----4-----|---------------------------------------| 
:0-0-0-0-0-0-0-1-0-0-3-0-0-2-0-0-|---------------------------------------| 
 
 
 
:---------------------191919232319------191919232319etc--21-18-19-21-19-18-| 
:-21b-21b~~~----21-21--------------21-21-----------------------------------| 
:--------------------------------------------------------------------------| 
:--------------------------------------------------------------------------| 
:--------------------------------------------------------------------------| 
:--------------------------------------------------------------------------| 
 
 
                                                solo 3 
:----------------------------------------------*-18b--18b--21b-21b----------* 
:21-18-19-21-19-18-19-18-------------17-20b~~~-*-21b--21b-------------------| 
:------------------------20-17-18-20-----------*--------------------12-13-15| 
:----------------------------------------------*----------------------------| 
:----------------------------------------------*----------------------------| 
:----------------------------------------------*----------------------------| 
 
 
 
:-------------------------------------13-13-15-17-13-13-15-17-etc------| 
:13-12------------------------------------------------------------17\--| 
:------15-12-14-15-14-12-14-14b-14b\-----------------------------------| 
:----------------------------------------------------------------------| 
:----------------------------------------------------------------------| 
:----------------------------------------------------------------------| 
 
 
                  bar/\/\/\/\/\ 
:-----------------------------------------22\------------------------------| 
:15151515151515\--12--(12)-(12)--15\--x\-----------------------------------| 
:-------------------------------------x\-------12b---14b--14b--16b-18b--18b| 
:--------------------------------------------------------------------------| 
:--------------------------------------------------------------------------| 
:--------------------------------------------------------------------------| 
 
 
                                                              
bar/\/\/\/\/\/\/\/\/\ 
:2323232023182123-----------------------------------------------7h9p7h9p7h9p7h10p7etc* 
:-----------------19-20-22-22-22b-19h22p19h22p19h22p19h22p19-------------------------| 
:------------------------------------------------------------------------------------| 
:------------------------------------------------------------------------------------| 
:------------------------------------------------------------------------------------| 
:------------------------------------------------------------------------------------| 
 
      bar 
:----------------------------------------------------------------------------------| 
:20b-------------------------------------------------------------------------------| 
:----------4-5-7-5-4-5-7-5-4-------4-5-4-5-4-7-4-5-7-4-5-7-------------------------| 
:----------------------------7-5-4-------------------------7-4-5-7-5-4-------------| 
:----------------------------------------------------------------------7-4-5-7-5-4-| 
:-----0----------------------------------------------------------------------------| 
 
 
 
 
:------------*-------------------------------------------------------------------| 
:------------*-------------------------------------------------------------------| 
:------------*-6--(6)--(6)--(6)\-------------------------------------------------| 
:--------7\--*-6--(6)--(6)--(6)\-------------------------------------------------| 
:------------*-4--(4)--(4)--(4)\--7/8-2-----2-----2-----2-7/8-2-----2-----2-----2| 
:7-5-4-------*--------------------5/6-0-0-0-0-0-0-0-0-0-0-5/6-0-0-0-0-0-0-0-0-0-0| 
 
 
 
 
:-------------------------------------------| 
:-------------------------------------------| 
:-------------------------------------------| 
:----------6/7-------8/9--------------------| 
:7/8-----2-4/5-----2-6/7-----2-7\6-4\2------| 
:5/6-0-0-0-----0-0-0-----0-0-0-5\4-2\0--etc-| 
 
 
solo 4 
:------------------------------------------------------------------1213151312| 
:------------------------------------------------121314121315121415----------| 
:------------------------------------121415121415----------------------------| 
:------------------------121415121415----------------------------------------| 
:------------121315121315----------------------------------------------------| 
:121315121315----------------------------------------------------------------| 
 
 
 
:-------------------------------------------------------------------------------| 
:151213151312-15b-15b-15b-15b---------------------------------------------------| 
:-------------14b-14b-14b-14b--12h14p12-11~~-11-12-14-12-11---------------------| 
:-----------------------------------------------------------14-12-11~~-11-12-14-| 
:-------------------------------------------------------------------------------| 
:-------------------------------------------------------------------------------| 
 
 
:---------------------------------------------------14-----------------------| 
:-------------------------------------------------------------------------12-| 
:11-12-14-12-11--------------------------------------------------11-12-14----| 
:---------------14-11-12-14-12-11-----------------------11-12-14-------------| 
:---------------------------------14-11-12-14-12-11--------------------------| 
:----------------------------------------------------------------------------| 
 
                                                   full  
:-------------------------------------------------------------------14h16h17-| 
:13-15-13-12--15b-15b-12h15p12-12h15p12------------17b--17b~~~--19\----------| 
:---------------------------------------14b-14b~~/---------------------------| 
:----------------------------------------------------------------------------| 
:----------------------------------------------------------------------------| 
:----------------------------------------------------------------------------| 
 
 
:--------------------------------------------------------| 
:17b-14-17-14-----14-17-15-14----------------------------| 
:-------------16b-------------17-14-15-17-15-14----------| 
:-----------------------------------------------17-15-14-| 
:--------------------------------------------------------| 
:--------------------------------------------------------| 
 
 
solo 5                                              full  
:----16-20-16h20p16----16h19p16----16h19p16-etc-19b-19b--16h19p16-----------------| 
:-19----------------18----------18--------------------------------19b-19b-16h19p16| 
:---------------------------------------------------------------------------------| 
:---------------------------------------------------------------------------------| 
:---------------------------------------------------------------------------------| 
:---------------------------------------------------------------------------------| 
 
 
            solo 6 
:----------*---------------------------------------------------------------| 
:----------*---------------------------------------------------------------| 
:18b-18b~~~*----------------------------------------------------141517~~~~-| 
:----------*-1617191716----------------------------------161719------------| 
:----------*------------19171617191716------------161719-------------------| 
:----------*---------------------------1917161719--------------------------| 
 
 
       bar      i'm not sure about this                bar 
:-------------|-16\-15~~-------------------------------------------------17-(17)\-12/18| 
:-------------|----------16~~~\--21~~~--16--16~~-/--\------17~~~\---17/\---------------| 
:-------------|------------------------------------------------------------------------| 
:2------------|------------------20~~~--17---------------------------------------------| 
:2-----0---(0)|----------------------------------------0-------------------------------| 
:0------------|------------------------------------------------------------------------| 
 
 
 
:14/18--17-------16\--16\---16--------------------| 
:-----------18\--19\--19\--------17\--17\-17~~/---| 
:-------------------------------------------------| 
:-------------------------------------------------| 
:-------------------------------------------------| 
:-------------------------------------------------| 
 
 
 
    play 4 times   
eb:|----------------------------------------------------| 
Bb:|----------------------------------------------------| 
Gb:|----------------------------------------------------| 
Db:|------------------------------------------------7-6-| 
Ab:|6----------5---------6------5-----6---------5-4-----| 
Eb:|--33333333---3333333---3333---333-----0-5-6---------| 
 
 
 
 
    play 4 times 
:----------------------------------------| 
:----------------------------------------| 
:----------------------------------------| 
:----------4--------5--------7-----------| 
:-2--------2--------3--------5--------6\-| 
:-0-000000---000000---000000---000000-4\-| 
 
 
:------------------------------------------------------------------| 
:------------------------------------------------------------------| 
:------------------------------------------------------------------| 
:------------------------------------------------------------------| 
:---------9-10-9---------6-7-6---------9-10-9---------10-9-8-9-8-7-| 
:-4444444-7-8--7-4444444-4-5-4-4444444-7-8--7-4444444-8--7-6-7-6-5-| 
 
 
solo 7 
:171922171922171922171922etc-16h19p16-22-22-22-22-22-etc-22~~~--17192219--------------| 
:------------------------------------------------------------------------221719221917-| 
:-------------------------------------------------------------------------------------| 
:-------------------------------------------------------------------------------------| 
:-------------------------------------------------------------------------------------| 
:-------------------------------------------------------------------------------------| 
 
 
                                                            bar  
:-----------------------------------------------------------------| 
:1917-------------------------------------------------------------| 
:-----191617191716------------------------------------------------| 
:------------------191617191716-----------------------------------| 
:-------------------------------181516181615----------------------| 
:--------------------------------------------181516181615\--0-----| 
 
 
 
 
:------------------------------------------------------| 
:------------------------------------------------------| 
:------------------------------------------------------| 
:-7-6-----6-5------5--(5)\-----------------------------| 
:-----7-6-----6-5--5--(5)\-----------------------------| 
:------------------3--(3)\-----------------------------|
  development and support by
dmitry ivanov