rock
 
|tablatures   |lyrics   |discussion forums   |more tabs @ XGuitar.com

Slayer tabs

Praise Of Death bass tab

Song: Praise of Death
Band: Slayer
Album: Hell Awaits
Year: 1985
Tabbed By David Siddons (farmer_siddons@hotmail.com)

Riff A:
|-----------------------------------------------------------------------|
|-------------------------------------------------------------------7-6-|
|-6-----------------5---------------6---------5-----6-----------5-4-----|
|---3-3-3-3-3-3-3-3---3-3-3-3-3-3-3---3-3-3-3---3-3-3-----0-5-6---------|

Riff B:
|------------------------------------------------------------|
|------------------------------------------------------------|
|---------------2-------------3-------------5----------------|
|-0-0-0-0-0-0-0---0-0-0-0-0-0---0-0-0-0-0-0---0-0-0-0-0-0-4\\-|

Riff C:
|-----------------------------------------------------------------------------------------|
|-----------------------------------------------------------------------------------------|
|-----------------------------------------------------------------------------------------|
|-4-4-4-4-4-4-4-7-8--7-4-4-4-4-4-44-4-5-4-4-4-4-4-4-4-4-7-8--7-4-4-4-4-4-4-4-8--7-6-7-6-5-|

Riff D:
|--------------------------|
|----------------5-4-------|
|-0-3p2p0--7-5p4-----------|
|----------------------2---|

Riff E:
|---------------------------------|
|---------------------------------|
|---------------------------------|
|-0-0-0-0-0-0-0-1-0-0-3-0-0-2-0-0-|

Riff F:
|--------------------|
|-7-6-----6-5--------|
|-----7-6-----6-5----|
|------------------3-|
  development and support by
dmitry ivanov