rock
 
|tablatures   |lyrics   |discussion forums   |more tabs @ XGuitar.com

Slayer tabs

Piece By Piece bass tab

Band: Slayer
Song: Piece by Piece
Album: Reign in Blood
Year 1986

Riff 1: [Play 5 Times]
|-----------------------------|--------------------|
|-----------------------------|--------------------|
|-----------------------------|--------------------|
|--3-2-0--6-5-1--0-0-0--0-0-0-|-5-2-0--6-5-1-------|

Riff 2: [Play 2 Times]
|-----------------------------|----------------------------|
|-----------------------------|----------------------------|
|-----------------------------|----------------------------|
|--2-1-0--2-1-0--2-1-0--2-1-0-|-2-1-0--5-4-3--4-3-2--3-2-1-|

Riff 3:
|---------------|
|---------------|
|---------------|
|-5---4---3---2-|

Riff 4: x4
|-------------------------------|------------------------|
|-------------------------------|------------------------|
|-------------------------------|------------------------|
|-0--0-0-0-0-0-0-0--0-0-0-0-0-0-|-0--3--2--0--6-/5--1-/2-|

Riff 5:  x4
|--------------------------------|--------------------------|
|--------------------------------|--------------------------|
|--------------------------------|------------------2--1----|
|-2--0-0-0-0-0-0-0-0-0-2--3--0-0-|-0-0-3--0-0-3--0----------|

|--------------------------------|--------------------------|
|--------------------------------|--------------------------|
|--------------------------------|--------------------------|
|-2--0-0-0-0-0-0-0-0-0-2--3--0-0-|-0-0-3--0-3---------------|


Riff 6: x2 3/4
|-------------------------------|----------------|
|-------------------------------|----------------|
|-------------------------------|----------------|
|-1--1-1-1-1-1-1-1--1-1-1-1-1-1-|-1--1-1-1-1-1-1-|

|-------------------------------|------------------------|
|-------------------------------|------------------------|
|-------------------------------|----2-/1-----4--3--2----|
|-4--4-4-4-4-4-4-4--4-4-4-4-4-4-|-4--------0-------------|

Riff 7: x1
|-----------------|
|-----------------|
|-2----3-----2----|
|-----------------|

Riff 7:
|--------------------|--------------------|--------------------|--------------------|
|--------------------|--------------------|--------------------|--------------------|
|--------------------|-3------------------|-2------------------|--------------------|
|-2------------------|--------------------|--------------------|-1--------4---------|

|------------------------------------|------------------------------------|
|------------------------------------|------------------------------------|
|------------------------------------|------------------------------------|
|-2-2-2-2--2-2-2-2--2-2-2-2--2-2-2-2-|-8-8-8-8--8-8-8-8--8-8-8-8--8-8-8-8-|

|------------------------------------|------------------------------------|
|------------------------------------|------------------------------------|
|------------------------------------|------------------------------------|
|-7-7-7-7--7-7-7-7--7-7-7-7--7-7-7-7-|-1-----1-----1-----4-----4-----4----|

|------------------------------------|------------------------------------|
|------------------------------------|------------------------------------|
|------------------------------------|--3---------------------------------|
|-2-2-2-2--2-2-2-2--2-2-2-2--2-2-2-2-|------------------------------------|

|-----------------------------------------|-------------------------------|
|-----------------------------------------|-------------------------------|
|--2--------------------------------------|-------------------------------|
|-----------------------------------------|--1----------4-----------------|

Riff 8:
|-------------------------|-------------------|
|-------------------------|-------------------|
|-------------------------|-------------------|
|-0--3--2--0--6--5--1--2--|--3----------------|

Playlist:
Riff 1 x5
Riff 2 x2
Riff 3 x1
Riff 4 x4
Riff 5 x4
Riff 6 x2 3/4
Riff 4 x4
Riff 5 x4
Riff 6 x2 3/4
Pause for 1 Bar
Riff 2 x3
Riff 7 x1
Riff 8 x1
  development and support by
dmitry ivanov