rock
 
|tablatures   |lyrics   |discussion forums   |more tabs @ XGuitar.com

Slayer tabs

Payback bass tab

Song: Payback
Band: Slayer
Album: God Hates Us All
Year: 2001
Tabbed By David Siddons (farmer_siddons@hotmail.com)

Drop-B Tuning

Intro:
|------------------------------------------------------|
|------------------------------------------------------|
|------------------------------------------------------|
|-0----------------------------------------------------|

|------------------------------------------------------|
|------------------------------------------------------|
|------------------------------------------------------|
|-0-------------1-------------2-------------2-3--0-1-1-|

|------------------------------------------------------|
|------------------------------------------------------|
|------------------------------------------------------|
|-0-0-0-0-0-0-0-1-0-0-0-0-0-0-2-0-0-0-0-0-0-2-3--0-1-1-|

|------------------------------------------------------|------------|------------|---------------|
|------------------------------------------------------|------------|------------|---------------|
|------------------------------------------------------|------------|------------|---------------|
|-0-0-0-0-0-0-0-1-0-0-0-0-0-0-2-0-0-0-0-0-0-2-3--0-1-1-|-2-3--0-1-1-|-2-3--0-1-1-|-0-1--5~~~-(5)-|

Bridge to Verse:
|----------------------------|
|----------------------------|
|----------------------------|
|-3-2-0--3-2-0--3-2-0--3-2-0-|

Verse:
|----------------------------------------------------------------------|
|----------------------------------------------------------------------|
|----------------------------------------------------------------------|
|-0--0-0-0-0-0-0--4-4-4-4-4-4--0-0-0-0-0-0-0--4-4-4-4-4-4--3-3-3-3-3-3-|

|-------------------------------------------------------------------|
|-------------------------------------------------------------------|
|-------------------------------------------------------------------|
|-0-0-0-0-0-0-0--1-1-1-1-1-1-1--0-0-0-0-0-0--4-4-4-4-4-4--3-3-3-3-3-|

Bridge To Chorus:
|----------------------|
|----------------------|
|----------------------|
|-0-0-0-0-0--3-2-0-2-0-|

Chorus:
|-------------------------------------------|
|-------------------------------------------|
|----------------------1-1-1-1--0-0-0-0-0-0-|
|-0-0-0-0-0-0--3-3-3-3----------------------|

Verse 2:
|----------------------------------------------------|
|----------------------------------------------------|
|----------------------------------------------------|
|-0--0-0-0-0-0-0--1--0-0-0-0-0-0--2-0-2-0-4--3--0--2-|

|-------------------------------------------------------|
|-------------------------------------------------------|
|-------------------------------------------------------|
|-0--0-0-0-0-0-0--1--0-0-0-0-0-0-2-0-2-0-4--3--0--2-0h2-|

Ending:
|---------------------------------|---------------|
|---------------------------------|---------------|
|---------------------------------|---------------|
|-2--4--0--2--4-0-0-0-0-0-0-0-0-0-|-2--4--0--2--4-|
  development and support by
dmitry ivanov