rock
 
|tablatures   |lyrics   |discussion forums   |more tabs @ XGuitar.com

Slayer tabs

Overt Enemy guitar tab

OVERT ENEMY 
ALBUM: DIABOLUS IN MUSICA 
SLAYER 
 
TABBED BY: RUDY GUZMAN 
 
DROPPED D TUNNING 
 
BASS AND DRUMS 
Gt 1 
eb:|--------------------|---------------------|--------------------| 
Bb:|--------------------|---------------------|--------------------| 
Gb:|--------------------|---------------------|--------------------| 
Db:|--------------------|---------------------|--------------------| 
Ab:|----------6--5------|----------6--5-------|--------------------| 
 D:|-0--7--6--------8---|-0--7--6--------8--7-|-5--4---8--7--11~~~-| 
 
 
Gt 2 
:-----------------------|---------------------|--------------------| 
:-----------------------|----------4--3-------|--------------------| 
:-----------------------|----2--1-------------|--------------------| 
:-----------------------|---------------------|--------8--7--11~~~-| 
:-------------6--5------|---------------------|-10--9--------------| 
:----0--7--6--------8---|-0-------------------|--------------------| 
 
 
Gt 1 
:------------------------| 
:------------------------| 
:------------------------| 
:------------------------| 
:-------------6--5-------| 
:----0--7--6--------8--7-| 
 
Gt 2 
:-------------------------------| 
:-------------8--7--------------| 
:-------------------7--6--------| 
:-------7--6--------------------| 
:-------------------------------| 
:----0--------------------------| 
 
 
 
:-----------------------------------------------------------------------------| 
 
:-----------------------------------------------------------------------------| 
 
:-----------------------------------------------------------------------------| 
 
:-----------------------------------------------------------------------------| 
 
:----3-2-0-3-2-0-0--3-2-0-3-2-6-6--3-2-0-3-2-0-0--3-2-0-3-2-6--3-2-0-3-2-0-0--| 
 
:-0--3-2-0-3-2-0-0--3-2-0-3-2-6-6--3-2-0-3-2-0-0--3-2-0-3-2-6--3-2-0-3-2-0-0--| 
 
:-----------------------------------------------| 
:-----------------------------------------------| 
:-----------------------------------------------| 
:-----------------------------------------------| 
:-3-2-0-3-2-6-6--3-2-0-3-2-0-0--3-2-0-3-2-6-6---| 
:-3-2-0-3-2-6-6--3-2-0-3-2-0-0--3-2-0-3-2-6-6---| 
 
 
i breach your life... 
       repeat 3 times 
:-------------------|-----------------------| 
:-------------------|-----------------------| 
:-------------------|-----------------------| 
:-------------------|-----------------------| 
:-0--3--2---0--6--5-|-3--0-0--0-0--0-0--0-0-| 
:-0--3--2---0--6--5-|-3--0-0--0-0--0-0--0-0-| 
                     pm  . .  . .  . .  . . 
 
Abusing power...                    i hate your church... 
  repeat 3 times                      repeat 3 times 
:-------------------|--------------|-------------------*----------------------| 
 
:-------------------|--------------|-------------------*----------------------| 
 
:-------------------|--------------|-------------------*----------------------| 
 
:-------------------|--------------|-------------------*----------------------| 
 
:-0--3--2---0--6--5-|-3--0-0--0-0--|-0--3--2---0--6--5-*-3--0-0--0-0--0-0-----| 
 
:-0--3--2---0--6--5-|-3--0-0--0-0--|-0--3--2---0--6--5-*-3--0-0--0-0--0-0-----| 
 
                     pm  . .  . . 
 
 
i'll sell your life... 
  repeat 6 times     backing solo riff (repeat)   last part 
:------------------|---------------------|--------------------* 
:------------------|---------------------|--------------------* 
:------------------|---------------------|--------------------* 
:------------------|---------------------|--------------------* 
:-0--7--6--0--7--1-|--0--7--6--0--7--1---|-0-0--0-0--0-0--0-0-* 
:-0--7--6--0--7--1-|--0--7--6--0--7--1---|-0-0--0-0--0-0--0-0-* 
 
 
 
solo 
     repeat 2 times 
:--------------------------|------------------------------------------------------| 
 
:--------------------------|---------------------------------10-11-10-11-13-11-10-| 
 
:9-9-9-8-9--12-12-12-11-12-|11h12p11----11h12p11----11-12-14----------------------| 
 
:--------------------------|---------12----------12-------------------------------| 
 
:--------------------------|------------------------------------------------------| 
 
:--------------------------|------------------------------------------------------| 
 
 
 
                         repeat 5 times 
:-----------------------*-----------------*-20~~~~~--| 
:-----------------------*--16-17-19-17-16-*----------| 
:-14-11-12-11-----------*-----------------*----------| 
:-------------14-12-14b-*-----------------*----------| 
:-----------------------*-----------------*----------| 
:-----------------------*-----------------*----------| 
audicious plans... 
 repeat 3 times 
:-------------*------------------------------------------| 
:-------------*------------------------------------------| 
:-------------*------------------------------------------| 
:-------------*------------------------------------------| 
:-0-3-2-0-6-5-*-3--0-0--0-0--0-0--0-0--------------------| 
:-0-3-2-0-6-5-*-3--0-0--0-0--0-0--0-0--------------------| 
                pm . .  . .  . .  . . 
 
 
  repeat 3 times 
:-------------*-----------------------------------------| 
:-------------*-----------------------------------------| 
:-------------*-----------------------------------------| 
:-------------*-----------------------------------------| 
:-0-3-2-0-6-5-*-3--0-0--0-0--0-0--0-0-------------------| 
:-0-3-2-0-6-5-*-3--0-0--0-0--0-0--0-0-------------------| 
                pm . .  . .  . .  . . 
 
i'll sell your life... 
  repeat 6 times 
:-------------------| 
:-------------------| 
:-------------------| 
:-------------------| 
:-0--7--6--0--7--1--| 
:-0--7--6--0--7--1--| 
 
 
note: is the same backing riff of the first solo 
 
solo 
:------------------------------------------------------| 
:------------------------------------------------------| 
:------------------------------------------------------| 
:-------------------------5-7-5-7-5-7p5h7p5 etc--------| 
:5-7-5-7-5-7-5-7p5h7p5-etc-----------------------------| 
:------------------------------------------------------| 
 pm............................................... 
 
       repeat 
:-----*---------*---------------------------------------------------12-11--| 
 
:-----*---------*-------6-8-8b--------------------12h13p12----12-13--------| 
 
:-4-5-*-4h5p4---*-4-5-7---------13-----13-----------------13---------------| 
 
:-----*-------7-*------------------14b----14b~~~---------------------------| 
 
:-----*---------*----------------------------------------------------------| 
 
:-----*---------*----------------------------------------------------------| 
 
 
 
:14-15-14h15p14-15-17-17p15p14-14h15p14-14-14-15-17-14h15p14-14-15-17-14h15p14-----| 
 
:-------------------------------------------------------------------------------19b| 
 
:----------------------------------------------------------------------------------| 
 
:----------------------------------------------------------------------------------| 
 
:----------------------------------------------------------------------------------| 
 
:----------------------------------------------------------------------------------| 
 
 
 
 
 
repeat 2 times 
:-----------------------------------------* 
:-----------------------------------------| 
:-----------------------------------------| 
:-----------------------------------------| 
:-5-8-12-11-7-10-6-5-6-8-12-11-7-10-6~~~--| 
:-----------------------------------------| 
 
demonize wath is feared... 
 repeat 3 times 
:----------------------------------------------------| 
:----------------------------------------------------| 
:----------------------------------------------------| 
:----------------------------------------------------| 
:-3-2-0--3-2-0--3-2-3-2-0--3-2-0--3-2-3-2-0--3-2-0---| 
:-3-2-0--3-2-0--3-2-3-2-0--3-2-0--3-2-3-2-0--3-2-0---| 
 
 
 
repeat 2 times 
:----------------------------------------------------| 
:----------------------------------------------------| 
:----------------------------------------------------| 
:----------------------------------------------------| 
:-5-8-12-11-7-10-6-5-6-8-12-11-7-10-6----------------| 
:----------------------------------------------------| 
 
smell the victims are near...                      cast out the demi 
god... 
                *repeat 8 times------------------*  repeat 2 times 
:--------------------------------------------------|-----------------------------| 
 
:--------------------------------------------------|-----------------------------| 
 
:--------------------------------------------------|-----------------------------| 
 
:--------------------------------------------------|-----------------------------| 
 
:-3-2-0--3-2-0--3-2-3-2-0--3-2-0--3-2-3-2-0--3-2-0-|-0--0-0--0-0--0-0--0-0--0-0--| 
 
:-3-2-0--3-2-0--3-2-3-2-0--3-2-0--3-2-3-2-0--3-2-0-|-0--0-0--0-0--0-0--0-0--0-0--| 
 
                                                    pm  . .  . .  . .  . 
.  . . 
 
dethrone the demagogue... 
repeat 4 times 
:----------------------------------------|----------| 
:----------------------------------------|----------| 
:----------------------------------------|----------| 
:----------------------------------------|----------| 
:-5-8-12-11-7-10-6-5-6-8-12-11-7-10-6~~~-|-0-0-0-0--| 
:----------------------------------------|-0-0-0-0--| 
                                         pm. . . . 
 
 
:----------------------|----------------------------------------------------------| 
 
:----------------------|----------------------------------------------------------| 
 
:----------------------|----------------------------------------------------------| 
 
:----------------------|----------------------------------------------------------| 
 
:----------6--5--------|-3-2-0-3-2-0-0-3-2-0-3-2-6-6-0-3-2-0-3-2-0-0-3-2-0-3-2-6--| 
 
:-0--7--6--------8--7--|-3-2-0-3-2-0-0-3-2-0-3-2-6-6-0-3-2-0-3-2-0-0-3-2-0-3-2-6--| 
 
 
 
 
 
:----------------------------------------------------------------| 
:----------------------------------------------------------------| 
:----------------------------------------------------------------| 
:----------------------------------------------------------------| 
:-3-2-0-3-2-0-0-3-2-0-3-2-6-6-0-3-2-0-3-2-0-0-3-2-0-3-2-6-6------| 
:-3-2-0-3-2-0-0-3-2-0-3-2-6-6-0-3-2-0-3-2-0-0-3-2-0-3-2-6-6------| 
 
i command your life... 
 repeat 3 times 
:--------------*--------------| 
:--------------*--------------| 
:--------------*--------------| 
:--------------*--------------| 
:-0-3-2--0-6-5-*--3--0-0------| 
:-0-3-2--0-6-5-*--3--0-0------| 
 
i'm not sure of the first part of second solo is right. 
 
windows notepad txt 
 
 
 
-*-*-*-*-*-*-*-*-*-*-*-*-*-*-*-*-*-*-*-*-*-*-*-*-*-*-*-*-*-*-*-*-*-* 
 
bitter peace (solo) 
 
 
album: diabolus in musica 
 
 
slayer 
 
 
tabbed by: Rudy Guzman 
 
 
1/2 step down 
 
eb 
Bb 
Gb 
Db 
Ab 
EB 
 
solo 1 
:------------------------------10-11-13-10---------------------------------| 
 
:/10~~~---10-11-10-11-13p11p10-------------13-10-11-13-11-9-8-9-8-9-11-9-8-| 
 
:--------------------------------------------------------------------------| 
 
:--------------------------------------------------------------------------| 
 
:--------------------------------------------------------------------------| 
 
:--------------------------------------------------------------------------| 
 
:--------14-14-15-12-15----15----|-15-14-15-12-15----15-----| 
:-----------------------15----14-|----------------15----14--| 
:-12b~~--------------------------|--------------------------| 
:--------------------------------|--------------------------| 
:--------------------------------|--------------------------| 
:--------------------------------|--------------------------| 
 
 
:-15-13-12---------------------------------------8-7----------| 
:----------13-12---12-9-10-12-10-9------------9------8--9AH---| 
:-----------------------------------12b----10-----------------| 
:-------------------------------------------------------------| 
:-------------------------------------------------------------| 
:-------------------------------------------------------------| 
 
 
 
solo 2 
   repeat 3 times           repeat 3 times 
:-22-22-22-22p20p19-|------|-22-22-22-22p20p19-| 
:-------------------|-21b--|-------------------| 
:-------------------|------|-------------------| 
:-------------------|------|-------------------| 
:-------------------|------|-------------------| 
:-------------------|------|-------------------| 
 
 
                       repeat 3 times 
:---------------------|--------------------| 
:-21b--20b------------|-21-21-21-21p19p18--| 
:------------20b~~~---|--------------------| 
:---------------------|--------------------| 
:---------------------|--------------------| 
:---------------------|--------------------| 
 
 
 
:-------------------------------------------------| 
:--------------21-19-18---------------------------| 
:-20b--20~~~-------------21-19-18-----------------| 
:----------------------------------21-19-18-------| 
:--------------------------------------------19\--| 
:-------------------------------------------------| 
 
 
 
:---------------------------------------------------------------------12-13-15-17\| 
 
:------------------------------------------------------12-13-12-13-15-------------| 
 
:---------------------------------------12-13-12-13-15----------------------------| 
 
:------------------------12-13-12-13-15-------------------------------------------| 
 
:---------12-13-12-13-15----------------------------------------------------------| 
 
:12-13-15-------------------------------------------------------------------------| 
 
 
 
 
 
 
 
 
 
 
 
 
 
 
 
 
 
 
Overt Enemy 
by Slayer 
From Diabolus in Musica 
Tabbed by SS-3 
ss-3@slayerized.com 
 
This isn't perfect, this 
is just how I play the 
song at home 
 
This song is tuned down 1 1/2 steps 
 
I'll be using the letters for 
standard tuning though, so just 
pretend when you're looking at the 
strings that it's in standard 
cause that's the only tuning I 
know the letters for.......... 
 
/-Slide up 
\-Slide down 
.-Palm mute 
~-Vibrato 
 
---------------------------------------------------------------------------- 
 
I only tabbed one guitar 
 
E|-------------------------------------------------------------------------| 
B|-------------------------------------------------------------------------| 
G|-------------------------------------------------------------------------| 
D|--------3-2~--------------3-2~-------------------------------3-2~--------| 
A|---2-1~-------3~~~---2-1~------3-2~~-------------3~~~---2-1~------3-2~~~-| 
E|-0-----------------0------------------2-1~-/5-4~------0------------------| 
 
E|------------------------------------| 
B|------------------------------------| 
G|------------------------------------| 
D|--------------------------------3-2-| 
A|-2--5-4-2-5-4-2-2-4-5-4-2-5-4-2-1-0-| 
E|-0--3-2-0-3-2-0-0-2-3-2-0-3-2-0-----| 
. . . . . . . . . . . . . . . . 
 
E|-------------------------------| |---------------------------------| 
B|-------------------------------| |---------------------------------| 
G|-------------------------------| |---------------------------------| 
D|-----------------------------3-| |-----------------------------3-2-| 
A|-5-4-2-5-4-2-2-4-5-4-2-5-4-2-1-| |-5-4-2-5-4-2-2-4-5-4-2-5-4-2-1-0-| 
E|-3-2-0-3-2-0-0-2-3-2-0-3-2-0---| |-3-2-0-3-2-0-0-2-3-2-0-3-2-0-----| 
. . . . . . . . . . . . . . . . . . . . . . . . . . . . . . 
 
E|-----------------------------| 
B|-----------------------------| 
G|-----------------------------| 
D|-----------------------------| 
A|-5-4-2-5-4-2-2-4-5-4-2-5-4-2-| 
E|-3-2-0-3-2-0-0-2-3-2-0-3-2-0-| 
. . . . . . . . . . . . . . 
 
E|------------------| |-----------------------| 
B|------------------| |-----------------------| 
G|------------------| Play |-----------------------| 
D|-------------3--2-| 3 times |-----------------------| 
A|-2--5--4--2--1--0-| |-5--2-2--2-2--2-2--2-2-| 
E|-0--3--2--0-------| |-3--0-0--0-0--0-0--0-0-| 
. . . . . . . . 
 
E|------------------| |-------------| 
B|------------------| |-------------| 
G|------------------| Play |-------------| 
D|-------------3--2-| 3 times |-------------| 
A|-2--5--4--2--1--0-| |-5--2-2--2-2-| 
E|-0--3--2--0-------| |-3--0-0--0-0-| 
. . . . 
 
E|------------------| |------------------| 
B|------------------| |------------------| 
G|------------------| Play |------------------| 
D|-------------3--2-| 3 times |------------------| 
A|-2--5--4--2--1--0-| |-5--2-2--2-2--2-2-| 
E|-0--3--2--0-------| |-3--0-0--0-0--0-0-| 
. . . . . . 
 
E|-------------------------------------------------------------| 
B|-------------------------------------------------------------| 
G|-------------------------------------------------------------| 
D|-------------------------------------------------------------| 
A|-5--/9--8--5--/9--3--2--9--8--5--/9--3--2--9--8--5--/9--3--2-| 
E|-3--/7--6--3--/7--1--0--7--6--3--/7--1--0--7--6--3--/7--1--0-| 
 
E|-------------------| |--------------------| 
B|-------------------| |--------------------| 
G|-------------------| Play Under Solo |--------------------| 
D|-----------------5-| 3 times |--------------------| 
A|-4--3--4--/7--6--3-| |-2-2--2-2--2-2--2-2-| 
E|-2--1--2--/5--4----| |-0-0--0-0--0-0--0-0-| 
. . . . . . . . 
 
E|------------------| |-------------| 
B|------------------| |-------------| 
G|------------------| Play |-------------| 
D|-------------3--2-| 3 times |-------------| 
A|-2--5--4--2--1--0-| |-5--2-2--2-2-| 
E|-0--3--2--0-------| |-3--0-0--0-0-| 
. . . . 
 
E|------------------| |------------------| 
B|------------------| |------------------| 
G|------------------| Play |------------------| 
D|-------------3--2-| 3 times |------------------| 
A|-2--5--4--2--1--0-| |-5--2-2--2-2--2-2-| 
E|-0--3--2--0-------| |-3--0-0--0-0--0-0-| 
. . . . . . 
 
E|-------------------------------------------------------------| 
B|-------------------------------------------------------------| 
G|-------------------------------------------------------------| 
D|-------------------------------------------------------------| 
A|-5--/9--8--5--/9--3--2--9--8--5--/9--3--2--9--8--5--/9--3--2-| 
E|-3--/7--6--3--/7--1--0--7--6--3--/7--1--0--7--6--3--/7--1--0-| 
 
E|-------------------| |--------------------| 
B|-------------------| |--------------------| 
G|-------------------| Play Under Solo |--------------------| 
D|-----------------5-| 3 times |--------------------| 
A|-4--3--4--/7--6--3-| |-2-2--2-2--2-2--2-2-| 
E|-2--1--2--/5--4----| |-0-0--0-0--0-0--0-0-| 
. . . . . . . . 
 
E|------------------------------------------------------| 
B|------------------------------------------------------| 
G|------------------------------------------------------| 
D|--------------9--8-----7---------------9--8-----7-----| 
A|-3--7--8--10--------9-----8--7--8--10--------9-----8~-| 
E|-1---00-00--00-00-00-00-00-00-00-00--00-00-00-00-00---| 
.. .. .. .. .. .. .. .. .. .. .. .. .. .. .. 
 
E|---------------------------------------------------| 
B|---------------------------------------------------| 
G|---------------------------------------------------| 
D|-----------9--8-----7---------------9--8-----7-----| 
A|-7--8--10--------9-----8--7--8--10--------9-----8~-| 
E|--00-00--00-00-00-00-00-00-00-00--00-00-00-00-00---| 
.. .. .. .. .. .. .. .. .. .. .. .. .. .. .. 
 
E|-----------------------------------------------------------------| 
B|-----------------------------------------------------------------| 
G|-----------------------------------------------------------------| Play 
D|-------------------------------------------------------------3-2-| 2 
times 
A|-5-4-2-5-4-3-2-5-4-3-2-5-4-2-4-3-5-4-2-5-4-3-2-5-4-3-2-5-4-5-1-0-| 
E|-3-2-0-3-2-1-0-3-2-1-0-3-2-0-2-1-3-2-0-3-2-1-0-3-2-1-0-3-2-3-----| 
. . . . . . . . . . . . . . . . . . . . . . . . . . . . . . . . 
 
E|---------------------------------------------------| 
B|---------------------------------------------------| 
G|---------------------------------------------------| 
D|-----------9--8-----7---------------9--8-----7-----| 
A|-7--8--10--------9-----8--7--8--10--------9-----8~-| 
E|--00-00--00-00-00-00-00-00-00-00--00-00-00-00-00---| 
.. .. .. .. .. .. .. .. .. .. .. .. .. .. .. 
 
E|---------------------------| 
B|---------------------------| 
G|---------------------------| 
D|-----------9--8-----7------| 
A|-7--8--10--------9-----8-2-| 
E|--00-00--00-00-00-00-00--0-| 
.. .. .. .. .. .. .. 
 
E|-----------------------------------------------------------------| 
B|-----------------------------------------------------------------| 
G|-----------------------------------------------------------------| Play 
D|-------------------------------------------------------------3-2-| 2 
times 
A|-5-4-2-5-4-3-2-5-4-3-2-5-4-2-4-3-5-4-2-5-4-3-2-5-4-3-2-5-4-5-1-0-| 
E|-3-2-0-3-2-1-0-3-2-1-0-3-2-0-2-1-3-2-0-3-2-1-0-3-2-1-0-3-2-3-----| 
. . . . . . . . . . . . . . . . . . . . . . . . . . . . . . . . 
 
E|---------------------------------------------------| 
B|---------------------------------------------------| 
G|---------------------------------------------------| 
D|---------------------------------------------------| 
A|-2--2--2--2--2--2--2--2--2--2--2--2--2--2--2-------| 
E|-0--0--0--0--0--0--0--0--0--0--0--0--0--0--0--/13\-| 
. . . . . . . . . . . . . . . 
 
E|---------------------------------------------------| |---------| 
B|---------------------------------------------------| |---------| 
G|---------------------------------------------------| Play |---------| 
D|-----------9--8-----7---------------9--8-----7-----| 3 times |---------| 
A|-7--8--10--------9-----8--7--8--10--------9-----8~-| |-2--2--2-| 
E|--00-00--00-00-00-00-00-00-00-00--00-00-00-00-00---| |-0--0--0-| 
.. .. .. .. .. .. .. .. .. .. .. .. .. .. .. . . . 
 
E|--------------------| 
B|--------------------| 
G|--------------------| 
D|--------3-2~--------| 
A|---2-1~------3-2~~~-| 
E|-0------------------| 
 
E|------------------------------------| 
B|------------------------------------| 
G|------------------------------------| 
D|--------------------------------3-2-| 
A|-2--5-4-2-5-4-2-2-4-5-4-2-5-4-2-1-0-| 
E|-0--3-2-0-3-2-0-0-2-3-2-0-3-2-0-----| 
. . . . . . . . . . . . . . . . 
 
E|-------------------------------| |---------------------------------| 
B|-------------------------------| |---------------------------------| 
G|-------------------------------| |---------------------------------| 
D|-----------------------------3-| |-----------------------------3-2-| 
A|-5-4-2-5-4-2-2-4-5-4-2-5-4-2-1-| |-5-4-2-5-4-2-2-4-5-4-2-5-4-2-1-0-| 
E|-3-2-0-3-2-0-0-2-3-2-0-3-2-0---| |-3-2-0-3-2-0-0-2-3-2-0-3-2-0-----| 
. . . . . . . . . . . . . . . . . . . . . . . . . . . . . . 
 
E|-----------------------------| 
B|-----------------------------| 
G|-----------------------------| 
D|-----------------------------| 
A|-5-4-2-5-4-2-2-4-5-4-2-5-4-2-| 
E|-3-2-0-3-2-0-0-2-3-2-0-3-2-0-| 
. . . . . . . . . . . . . . 
 
E|------------------| |--------| 
B|------------------| |--------| 
G|------------------| Play |--------| 
D|-------------3--2-| 3 times |--------| 
A|-2--5--4--2--1--0-| |-5--2-2-| 
E|-0--3--2--0-------| |-3--0-0-| 
. . 
 
That's It............. 
 
Mail me with shit to correct at ss-3@slayerized.com
  development and support by
dmitry ivanov