rock
 
|tablatures   |lyrics   |discussion forums   |more tabs @ XGuitar.com

Slayer tabs

New Faith guitar tab

Standard tuning transposed down one and a half steps: low to high, C# F# B E
G# C#.
Tempo: 180bpm


Riff 1: Intro/Verse"Holy man open up your eyes..."
E|---------------------------
B|---------------------------
G|---------------------------
D|-2-2-2-2-2-2-2-2-3---6---5-   X8
A|-2-2-2-2-2-2-2-2-3---6---5-
E|-0-0-0-0-0-0-0-0-1-0-4-0-3-


Riff 2: Bridge "Tell me how it feels..."
E|---------------------------------------------------
B|---------------------------------------------------
G|---------------------------------------------------
D|---------------------------------------------------    X4(fast)
A|-------------------------------------------------2-
E|-2-4-5-2-4-5-2-4-5-2-4-5-2-4-5-2-4-5-2-4-5-2-4-5---


Riff 3: Chorus "Welcome to the horror..."
E|-------------------------------------------------------------------------------------------------------
B|-------------------------------------------------------------------------------------------------------
G|------------------------------------------------------------repeat a few times---Last time finish on:--
D|---------------------------------------------------------3-6-------------------------6-6-6-6-6-6-6-6-6-
A|---7-6-5---7-6-5---7-6-5---7-6-5---7-6-5---7-6-5---7-6-5-3-6-------------------------6-6-6-6-6-6-6-6-6-
E|-0-0-0-0-0-0-0-0-0-0-0-0-0-0-0-0-0-0-0-0-0-0-0-0-0-0-0-0-1-4-------------------------4-4-4-4-4-4-4-4-4-

repaet riif 1 x4, then riff 2 x2...then:

Riff 4: "This is new faith..."
E|---------------------------------------------------------------------------------------
B|---------------------------------------------------------------------------------------
G|-----------------------------------Play 3 more times then:-----------------------------
D|-------------------------------------------------------------------------------------8-
A|-5-7h---------5-7h-----------------------------------------5-7h---------5-7h---------8-
E|------0-0-0-0------0-0-0-0-0-0-0-0------------------------------0-0-0-0------0-0-0-0-6-


Riff 5: "Pray for life..."
E|------------------------------------------------------------------------------------------------------
B|------------------------------------------------------------------------------------------------------
G|------------------------------------------------------------------------------------------------------
D|-8--7--------------5--8--8--7--------------8--5--8--7--------------5--8--8--7--------------6--3--6--5-
A|-8--7--------------5--8--8--7--------------8--5--8--7--------------5--8--8--7--------------6--3--6--5-
E|-6--5--5-5-5-5-5-5-3--6--6--5--5-5-5-5-5-5-6--3--6--5--5-5-5-5-5-5-3--6--6--5--5-5-5-5-5-5-4--1--4--3-


Riff 6: Repeat Riff 4 and Riff 5 twice then go into the "Pray for
death...embrace new faith..." with this riff:
E|--------------------------------------------------------------------------
B|--------------------------------------------------------------------------
G|----------------------------Play 3 more times then:-----------------------
D|-6--3--6--5-----------------------------------------6--3--3--2----3-3-3-3-
A|-6--3--6--5-----------------------------------------6--3--3--2----3-3-3-3-
E|-4--1--4--3--0-0-0-0-0-0-0--------------------------4--1--1--0----1-1-1-1-

next:

Riff 7: "Yeah! New faith!"
E|---------------------------------------------
B|-One guitar doesn't play the last chord (Bm)-
G|---------------------------------------------
D|-2---2-3--6--5----2---2-3--8-----------------
A|-2---2-3--6--5----2---2-3--8-----------------
E|-0---0-1--4--3----0---0-1--6-----------------

Finish on:
E|--------
B|--------        sorry bout not haven the solo and all but its pretty gay....well enjoy this and e-mail me at jon_mahoney@hotmail.com.
G|--------
D|-2--2-3-
A|-2--2-3-
E|-0--0-1-
  development and support by
dmitry ivanov