rock
 
|tablatures   |lyrics   |discussion forums   |more tabs @ XGuitar.com

Slayer tabs

Necrophobic guitar tab

SLAYER 
			NECROPHOBIC	 
	Tabbed by Grzegorz Musialik (grg@perkele.giga.com.pl) 
	Please send corrections, thanks, flames etc.  
 
   Note: VERY, VERY FAST !!!  :-) 
 
Eb:--------------------------------------|------------------------------------ 
Bb:--------------------------------------|------------------------------------ 
Gb:--------------------------------------|------------------------------------ 
Db:--------------------------------------|------------------------------------ 
Ab:-0---0-0---0-0-0-0---6p5p3p0--0-0-0-0-|-0---0-0---0-0-0-0---6p5p3p0--0-0-0- 
Eb:--------------------------------------|------------------------------------ 
 
 
Eb:--|--------------------------------------|-----------------------------|--- 
Bb:--|--------------------------------------|-----------------------------|--- 
Gb:--|--------------------------------------|-----------------------------|--- 
Db:--|--------------------------------------|---------------------9-------|--- 
Ab:0-|-0---0-0---0-0-0-0--6p5p3p0--0-0-0-0--|-0-0-0-0--0-0-0-0--8-7--7----|-0- 
Eb:--|--------------------------------------|-------------------6----5----|--- 
 
 
Eb:----------------------------------|---------------------------------------- 
Bb:----------------------------------|---------------------------------------- 
Gb:----------------------------------|---------------------------------------- 
Db:------------------------------9---|---------------------------------------- 
Ab:0-0-0---6p5p3p0---0-0-0-0--8--7---|---------------------------------------- 
Eb:---------------------------6------|--4-4-4-4---4-4-4-4---5-5-5-5--5-5-5-5-- 
 
 
Eb:|--------------------------------|-------------------------------------|--- 
Bb:|--------------------------------|-------------------------------------|--- 
Gb:|--------------------------------|-------------------------------------|--- 
Db:|--------------------------------|-------------------------------------|--- 
Ab:|---------------------9--8--7----|-------------------------------------|--- 
Eb:|-4-4-4-4---4-4-4-4---7--6--5----|-4-4-4-4--4-4-4-4--5-5-5-5--5-5-5-5--|-4- 
 
 
Eb:------------------------------|---------------------------------------|---- 
Bb:------------------------------|---------------------------------------|---- 
Gb:------------------------------|---------------------------------------|---- 
Db:------------------------------|---------------------------------------|---- 
Ab:----------------9---8---7-----|-0-0-0-0---0-0-0-0---6p5p3p0--0-0-0-0--|-0-0 
Eb:4-4-4--4-4-4-4--7---6---5-----|---------------------------------------|---- 
 
 
Eb:-------------------------------|----------------------------------------|-- 
Bb:-------------------------------|----------------------------------------|-- 
Gb:-------------------------------|----------------------------------------|-- 
Db:-----------------------9-------|----------------------------------------|-- 
Ab:-0-0---0-0-0-0--8------7-------|-0-0-0-0---0-0-0-0---6p5p3p0---0-0-0-0--|-0 
Eb:----------------6--------------|----------------------------------------|-- 
 
 
Eb:--------------------------------|----------------------------------------|- 
Bb:--------------------------------|----------------------------------------|- 
Gb:--------------------------------|----------------------------------------|- 
Db:------------------------9-------|----------------------------------------|- 
Ab:-0-0-0---0-0-0-0--8-----7-------|----------------------------------------|- 
Eb:------------------6-------------|-4-4-4-4---4-4-4-4---5-5-5-5---5-5-5-5--|- 
 
 
Eb:------------------------------------|-------------------------------------- 
Bb:------------------------------------|-------------------------------------- 
Gb:------------------------------------|-------------------------------------- 
Db:------------------------------------|-------------------------------------- 
Ab:--------------------9---8---7-------|-------------------------------------- 
Eb:-4-4-4-4---4-4-4-4--7---6---5-------|--4-4-4-4---4-4-4-4---5-5-5-5---5-5-5- 
 
 
Eb:---|----------------------------------|------------------------------------ 
Bb:---|----------------------------------|------------------------------------ 
Gb:---|----------------------------------|------------------------------------ 
Db:---|----------------------------------|------------------------------------ 
Ab:---|--------------------9---8---7-----|--0---0-0---0-0-0-0---6p5p3p0---0-0- 
Eb:5--|-4-4-4-4---4-4-4-4--7---6---5-----|------------------------------------ 
 
 
Eb:-----|----------------------------------------|---------------------------- 
Bb:-----|----------------------------------------|---------------------------- 
Gb:-----|----------------------------------------|---------------------------- 
Db:-----|----------------------------------------|---------------------------- 
Ab:0-0--|--0---0-0---0-0-0-0--6p5p3p0---0-0-0-0--|-0---0-0---0-0-0-0--6p5p3p0- 
Eb:-----|----------------------------------------|---------------------------- 
 
 
Eb:-----------|------------------------------------|-------------------------- 
Bb:-----------|------------------------------------|-------------------------- 
Gb:-----------|------------------------------------|-------------------------- 
Db:-----------|----------------------------9-------|-------------------------- 
Ab:--0-0-0-0--|-0-0-0-0---0-0-0-0---8------7-------|-------------------------- 
Eb:-----------|---------------------6--------------|--2h3-3-3---3-3-3-3---3p2- 
 
 
Eb:---------------|-----------------------------------------|----------------- 
Bb:---------------|-----------------------------------------|----------------- 
Gb:---------------|-----------------------------------------|----------------- 
Db:---------------|-----------------------------------------|----------------- 
Ab:---------------|-----------------------------------------|----------------- 
Eb:2-2---2-2-2-2--|--2h3-3-3---3-3-3-3---3p1-1-1---1-1-1-1--|-2h3-3-3---3-3-3- 
 
Eb:------------------------|-----------------------------------------|-------- 
Bb:------------------------|-----------------------------------------|-------- 
Gb:------------------------|-----------------------------------------|-------- 
Db:------------------------|-----------------------------------------|-------- 
Ab:------------------------|-----------------------------------------|--0---0- 
Eb:3---3p2-2-2---2-2-2-2---|--2h3-3-3---3-3-3-3---3p1-1-1---1-1-1-1--|-------- 
 
 
Eb:---------------------------------|----------------------------------------- 
Bb:---------------------------------|----------------------------------------- 
Gb:---------------------------------|----------------------------------------- 
Db:---------------------------------|----------------------------------------- 
Ab:0---0-0-0-0---6p5p3p0---0-0-0-0--|--0---0-0---0-0-0-0---6p5p3p0---0-0-0-0-- 
Eb:---------------------------------|----------------------------------------- 
 
 
Eb:|-----------------------------------------|-------------------------------- 
Bb:|-----------------------------------------|-------------------------------- 
Gb:|-----------------------------------------|-------------------------------- 
Db:|-----------------------------------------|---------------------------9---- 
Ab:|--0---0-0---0-0-0-0---6p5p3p0---0-0-0-0--|-0-0-0-0---0-0-0-0---8-----7---- 
Eb:|-----------------------------------------|---------------------6---------- 
 
 
Eb:---|--------------------------------------|-------------------------------- 
Bb:---|--------------------------------------|-------------------------------- 
Gb:---|--------------------------------------|-------------------------------- 
Db:---|--------------------------------------|-------------------------------- 
Ab:---|--------------------------------------|-------------------9---8---7---- 
Eb:---|--4-4-4-4--4-4-4-4--5-5-5-5--5-5-5-5--|-4-4-4-4--4-4-4-4--7---6---5---- 
 
 
Eb:--|-----------------------------------------|------------------------------ 
Bb:--|-----------------------------------------|------------------------------ 
Gb:--|-----------------------------------------|------------------------------ 
Db:--|-----------------------------------------|------------------------------ 
Ab:--|-----------------------------------------|----------------------9---8--- 
Eb:--|--4-4-4-4---4-4-4-4---5-5-5-5---5-5-5-5--|--4-4-4-4---4-4-4-4---7---6--- 
 
 
Eb:---------|----------------------------------------|------------------------ 
Bb:---------|----------------------------------------|------------------------ 
Gb:---------|----------------------------------------|------------------------ 
Db:---------|----------------------------------------|------------------------ 
Ab:-7-------|-0-0-0-0---0-0-0-0---6p5p3p0---0-0-0-0--|-0-0-0-0---0-0-0-0---8-- 
Eb:-5-------|----------------------------------------|---------------------6-- 
 
 
Eb:---------|----------------------------------------|------------------------ 
Bb:---------|----------------------------------------|------------------------ 
Gb:---------|----------------------------------------|------------------------ 
Db:---9-----|----------------------------------------|------------------------ 
Ab:---7-----|-0-0-0-0---0-0-0-0---6p5p3p0---0-0-0-0--|--0-0-0-0---0-0-0-0--8-- 
Eb:---------|----------------------------------------|---------------------6-- 
 
 
Eb:----------|-----------------------------------------|---------------------- 
Bb:----------|-----------------------------------------|---------------------- 
Gb:----------|-----------------------------------------|---------------------- 
Db:---9------|-----------------------------------------|---------------------- 
Ab:---7------|-----------------------------------------|---------------------- 
Eb:----------|--4-4-4-4---4-4-4-4---5-5-5-5---5-5-5-5--|--4-4-4-4---4-4-4-4--- 
 
 
Eb:------------------|-----------------------------------------|-------------- 
Bb:------------------|-----------------------------------------|-------------- 
Gb:------------------|-----------------------------------------|-------------- 
Db:------------------|-----------------------------------------|-------------- 
Ab:9---8---7---------|-----------------------------------------|-------------- 
Eb:7---6---5---------|--4-4-4-4---4-4-4-4---5-5-5-5---5-5-5-5--|--4-4-4-4---4- 
 
 
Eb:-----------------------|----------------------------------------|---------- 
Bb:-----------------------|----------------------------------------|---------- 
Gb:-----------------------|----------------------------------------|---------- 
Db:-----------------------|----------------------------------------|---------- 
Ab:--------9---8---7------|-0---0-0---0-0-0-0---6p5p3p0---0-0-0-0--|-0---0-0-- 
Eb:4-4-4---7---6---5------|----------------------------------------|---------- 
 
 
Eb:------------------------------|----------------------------------------|--- 
Bb:------------------------------|----------------------------------------|--- 
Gb:------------------------------|----------------------------------------|--- 
Db:------------------------------|----------------------------------------|--- 
Ab:-0-0-0-0---6p5p3p0---0-0-0-0--|-0---0-0---0-0-0-0---6p5p3p0---0-0-0-0--|-0- 
Eb:------------------------------|----------------------------------------|--- 
 
 
Eb:------------------------------|-----------------------------------------|-- 
Bb:------------------------------|-----------------------------------------|-- 
Gb:------------------------------|-----------------------------------------|-- 
Db:-----------------------9------|-----------------------------------------|-- 
Ab:0-0-0---0-0-0-0--7-----7------|-----------------------------------------|-- 
Eb:-----------------6------------|--2h3-3-3---3-3-3-3---3p2-2-2---2-2-2-2--|-- 
 
 
Eb:---------------------------------------|----------------------------------- 
Bb:---------------------------------------|----------------------------------- 
Gb:---------------------------------------|----------------------------------- 
Db:---------------------------------------|----------------------------------- 
Ab:---------------------------------------|----------------------------------- 
Eb:2h3-3-3---3-3-3-3---3p1-1-1---1-1-1-1--|-2h3-3-3---3-3-3-3---3p2-2-2---2-2- 
 
 
Eb:-----|-----------------------------------------|--------------------------- 
Bb:-----|-----------------------------------------|--------------------------- 
Gb:-----|-----------------------------------------|--------------------------- 
Db:-----|-----------------------------------------|--------------------------- 
Ab:-----|-----------------------------------------|--\5--5---5---5---5-/-4---4 
Eb:2-2--|--2h3-3-3---3-3-3-3---3p1-1-1---1-1-1-1--|--\3--3---3---3---3-/-2---2 
 
 
Eb:-------|-----------------------------------|------------------------------- 
Bb:-------|-----------------------------------|------------------------------- 
Gb:-------|-----------------------------------|------------------------------- 
Db:-------|-----------------------------------|------------------------------- 
Ab:---4---|--4-\-5---5---5---5-/-3---3---3----|-\5---5---5---5---5-/-4---4---4 
Eb:---2---|--2-\-3---3---3---3-/-1---1---1----|-\3---3---3---3---3-/-2---2---2b 
 
 
 
 
 
Eb:---|--------------------------------------|-------------------------------| 
Bb:---|--------------------------------------|-------------------------------| 
Gb:---|--------------------------------------|-------------------------------| 
Db:---|--------------------------------------|-------------------------------| 
Ab:---|---4-\-5---5---5---5---3--------------|(3)----------------------------| 
Eb:---|---2-\-3---3---3---3---1--------------|(1)----------------------------| 
 
 
 
  rhy fig 1 (play 4 times)				    end of rhy fig 1	 
Eb:----------------------------------------|---------------------------------| 
Bb:----------------------------------------|---------------------------------| 
Gb:----------------------------------------|---------------------------------| 
Db:----------------------------------------|--------------------------6------| 
Ab:----------------------------------------|--------------------5-----4------| 
Eb:-2-2-2-2---2-2-2-2---2-2-2-2---2-2-2-2--|-2-2-2-2---2-2-2-2--3------------| 
 
 
 
 
Eb:------------------------------------|-------------------------------------- 
Bb:------------------------------------|-------------------------------------- 
Gb:----------------------------------5-|-4------------------------------------ 
Db:-3--------------------------------3-|-2---2-2---2-2-2-2---2-2-2-2---2-2-2-2 
Ab:-1---1-1---1-1-1-1---1-1-1-1---1----|-------------------------------------- 
Eb:------------------------------------|-------------------------------------- 
 
 
Eb:--|------------------------------------|----------------------------------- 
Bb:--|------------------------------------|----------------------------------- 
Gb:--|------------------------------------|----------------------------------- 
Db:--|----------------------------------6-|-3--------------------------------- 
Ab:--|-4--------------------------------4-|-5---3-3---3-3-3-3--3-3-3-3--3-3-3- 
Eb:--|-2---2-2---2-2-2-2---2-2-2-2---2----|----------------------------------- 
 
 
Eb:---|-----------------------------------|----------------------------------- 
Bb:---|-----------------------------------|----------------------------------- 
Gb:---|---------------------------------5-|-4--------------------------------- 
Db:---|-3-------------------------------3-|-2---2-2---2-2-2-2---2-2-2-2---2-2- 
Ab:3--|-1---1-1---1-1-1-1---1-1-1-1---1---|----------------------------------- 
Eb:---|-----------------------------------|----------------------------------- 
 
 
Eb:----|----------------------------------------|----------------------------- 
Bb:----|----------------------------------------|----------------------------- 
Gb:----|----------------------------------------|----------------------------- 
Db:2-2-|----------------------------------------|----------------------------- 
Ab:----|-4--------------------------------------|-0---0-0---0-0-0-0---6p5p3p0- 
Eb:----|-2---2-2---2-2-2-2---2-2-2-2---2-2-2-2--|----------------------------- 
 
 
Eb:-----------|-----------------------------------------|--------------------- 
Bb:-----------|-----------------------------------------|--------------------- 
Gb:-----------|-----------------------------------------|--------------------- 
Db:-----------|-----------------------------------------|--------------------- 
Ab:--0-0-0-0--|--0---0-0---0-0-0-0---6p5p3p0---0-0-0-0--|--0---0-0--0-0-0-0--- 
Eb:-----------|-----------------------------------------|--------------------- 
 
 
Eb:------------------|---------------------------|---------------------------- 
Bb:------------------|---------------------------|---------------------------- 
Gb:------------------|---------------------------|---------------------------- 
Db:------------------|------------------------9--|---------------------------- 
Ab:6p5p3p0--0-0-0-0--|-0-0-0-0---0-0-0-0--8---7--|--7---0-0-0-0---6p5p3p0---0- 
Eb:------------------|--------------------6------|--5------------------------- 
 
 
Eb:-------|--------------------------------------|---------------------------- 
Bb:-------|--------------------------------------|---------------------------- 
Gb:-------|--------------------------------------|---------------------------- 
Db:-------|--------------------------------------|---------------------------- 
Ab:0-0-0--|-0---0-0---0-0-0-0--6p5p3p0--0-0-0-0--|-0---0-0--0-0-0-0--6p5p3p0-- 
Eb:-------|--------------------------------------|---------------------------- 
 
					 rhy fig 2 (play 3&3/4 times) 
Eb:---------|----------------------------|-----------------------------------| 
Bb:---------|----------------------------|-----------------------------------| 
Gb:---------|----------------------------|-----------------------------------| 
Db:---------|-----------------------9----|-----------------------------------| 
Ab:0-0-0-0--|-0-0-0-0--0-0-0-0--8---7----|--7-------------------------7---11\| 
Eb:---------|-------------------6--------|--5--5-5--5-5-5-5--5-5-5-5--5----9\| 
 
 
Eb:------------------------------------|--------------------------------|----- 
Bb:------------------------------------|--------------------------------|----- 
Gb:------------------------------------|--------------------------------|----- 
Db:------------------------------------|--------------------------------|----- 
Ab:\10-------------------------10--11-\|-9-------------------------9-11\|-8--- 
Eb:\-8--8-8---8-8-8-8--8-8-8-8--8---9-\|-7--7-7--7-7-7-7--7-7-7-7--7--9\|-6--- 
							     E:-7-7-7-7 
								(last time) 
       		  end of rhy fig 2 
Eb:---------------------------------|---------------------------|------------- 
Bb:---------------------------------|---------------------------|------------- 
Gb:---------------------------------|---------------------------|------------- 
Db:---------------------------------|---------------------------|------------- 
Ab:---------------------------------|-4\5---5---5---5/4---4---4-|-4\5---5---5- 
Eb:6-6--6-6-6-6--6-6-6-6--6-6-6-6---|-2\3---3---3---3/2---2---2-|-2\3---3---3- 
                                                                      
 
Eb:-------------|----------------------------|--------------------------| 
Bb:-------------|----------------------------|--------------------------| 
Gb:-------------|----------------------------|--------------------------| 
Db:-------------|----------------------------|--------------------------| 
Ab:-5/3---3---3-|-4\5---5---5---5/4---4---4--|-4\5--5--5---5------------| 
Eb:-3/1---1---1-|-2\3---3---3---3/2---2---2--|-2\3--3--3---3------------| 
 
 
 
 
 
 
 
 
 
 
 
 
 
 
 
 
 
 
 
 
 
 
 
 
 
 
 
 
 
necrophobic (solo) 
album:reign in blood 
slayer 
 
tabbed by Rudy Guzman 
 
solo 
 
eb:-15b-------------------------------------------------------------------| 
Bb:-17b--16~~~-------------------------------------------------------12-12| 
Gb:-----------------------------------------------------------------------| 
Db:-----------------------------------------------------------------------| 
Ab:------------11-11-12-14-14-14-15-17-15-15-16-18-17-17-18-20p18p17------| 
Eb:-----------------------------------------------------------------------| 
 
 
 
eb:---------------------------------------------------------------------------| 
Bb:12-15-12-13-13-13-16-13-14-14-14-17-14-15-15-15-18-15-16-16-16-19-16-17-17-| 
Gb:---------------------------------------------------------------------------| 
Db:---------------------------------------------------------------------------| 
Ab:---------------------------------------------------------------------------| 
Eb:---------------------------------------------------------------------------| 
 
 
eb:-------------------21b*-17b----------22b-----------------------------------------* 
Bb:-17-20-17-20-17-18----*-----18b-----------20b~~~-6b--10b-------------------------* 
Gb:----------------------*---------19b----------------------------------------------* 
Db:----------------------*----------------------------------------------------------* 
Ab:----------------------*--------------------------------------------15-16-18-16-15* 
Eb:----------------------*-----------------------------------15-16-18---------------* 
 
 
eb:---------------------------------------16-17-19-17-16-------------------* 
Bb:------------------------------15-16-18----------------18-15-16-18-16-15-* 
Gb:---------14-14-15-15-17p15p14-------------------------------------------* 
Db:15-16-18----------------------------------------------------------------* 
Ab:------------------------------------------------------------------------* 
Eb:------------------------------------------------------------------------* 
 
   repeat 3 times 
eb:---------------------------------------------------* 
Bb:---------------------------------------------------* 
Gb:-18-18-18-18p17p15----echo-------------------------* 
Db:---------------------------------------------------* 
Ab:---------------------------------------------------* 
Eb:---------------------------------------------------*
  development and support by
dmitry ivanov