rock
 
|tablatures   |lyrics   |discussion forums   |more tabs @ XGuitar.com

Slayer tabs

Metal Storm / Face The Slayer bass tab

Song: Metal storm/Face the slayer
Artist: Slayer
Album: Show no mercy

Intro
G:--------------------------------------------------------
D:--------------------------------------------------------
A:-------------7-------5/0----------------7--------10~9---
E:-0-0-0-0-0-0---7-8-8-----5--0-0-0-0-0-0---7--8-8--------

Intro-Part II  (let the notes ring)
G:--------------------------------------------------
D:--------------------------------------------------
A:----0--0--0--0--0--0--------0--0--------0--0--0---
E:-0--------------------1--3--------1--3------------

Intro-Part III
G:------------------------------
D:------------------------------
A:------------------------------
E:-0-0-0--0-0-0--0-0-0--0-0-0---

Intro-Part IV
G:----------------------------
D:-7-7-7--7-7-7--7-7-7--7/0---
A:----------------------------
E:----------------------------

Intro-Part V
G:----------------------------------------
D:--------------3--2----------------------
A:-5-5-5--5-5-5-----------------------3---
E:--------------------3-3-3--3-3-3-5------

Intro-Part VI
G:-----------------------------------------------------
D:-------------------------5---------------------------
A:-0--0--0--3--0--0--0-5-7----0--0--0--3--0--0--0--3---
E:-----------------------------------------------------

Intro-Part VII
G:--------------------------------------------
D:-------------5------------------------------
A:-0--0--0-5-7----0--0--0-5-7----0--0--0--3---
E:----------------------------5---------------

Intro-Part VIII / Outro-Part II
G:-----------------------------------
D:-----------------------------------
A:-7---7---7---7---8---5---7---3\7---
E:---0---0---0---0---0---0---0-------

Intro-Part IX
G:-----------
D:-----------
A:-----------
E:-----0-----

Verse-Part I
G:--------------------------------------
D:--------------------------------------
A:---------7--7-8------------7--7-------
E:-0-0-0-0--------0--0-0-0-0------8-7---

Verse-Part II
G:-------------
D:-------------
A:---------1---
E:-0-0-0-0-----

Verse-Part III
G:-------------------------------------------------------------
D:-----------------------------------------8-------------------
A:-0-0-0--0-8-0--0-0-0-0-0-0-0-0--0-0-0--0---0--0-0-0-0-0-0-0-0
E:-------------------------------------------------------------

Verse-Part IV
G:---------------------
D:---------------------
A:-0-0-0-0---7-8-7-----
E:---------8-------8---

Guitar-Solo-Part I
G:-------------------------------------------------------------
D:-7----------5-------------------4----------5-----------------
A:---0-0--0-0----0-0-0-0-0-0-0-0----0-0--0-0----0-0-0-0-0-0-0-0
E:-------------------------------------------------------------

Guitar-Solo-Part II
G:-----------------
D:-----------------
A:-5--8~7--3~------
E:-------------5---

Guitar-Solo-Part III
G:----------------------------------------------------------
D:----------------------------------------------------------
A:-5-5-5--5-5-5--8-8-8--8-8-8--7-7-7--7-7-7-----------------
E:-------------------------------------------8-8-8--5-5-5---

Guitar-Solo-Part IV
G:----------------------
D:------------------4---
A:-7-7-7--7-7-7--3--2---
E:----------------------

Guitar-Break-Part I
G:------------------------------
D:---------------2------2-------
A:--------2--------3-0----3-2---
E:-0-2-3----3-0-----------------

Guitar-Break-Part II
G:----------------------------------------------------------
D:----------------------2-----5-------------------2-----5---
A:--------2--3-2----2-3----2--3--5--2--3-2----2-3----2--3--5
E:-0-2-3--0------3---------0-----3--0------3---------0-----3

Verse-Part V
G:---------------------------------------------------------
D:------------------------------------------8-7----7-------
A:-5h7----5h7----5h7----5-----5h7----5h7--------8----8-7---
E:-----0------0------0-----0------0------0-----------------

Verse-Part VI
G:----------------------
D:----------------------
A:-5h7----5h7-------3---
E:-----0------0--1------

Outro-Part I
G:-----------------------------------------
D:-----------------------------------------
A:-2-2-2--2-2-2\5--4-------------------0---
E:--------------------0-0-0--0-0-0--2------

Outro-Part III
G:------------------------------------------------
D:---------------------5----------------------8---
A:-0-0-0--0-0-0--0-0-0----0-0-0--0-0-0--0-0-0-----
E:------------------------------------------------


G:--------------------------------------------------
D:---------------------10----------------------12---
A:-0-0-0--0-0-0--0-0-0-----0-0-0--0-0-0--0-0-0------
E:--------------------------------------------------

G:------------------------------------------------------
D:---------------------5--------8--------10--------12---
A:-0-0-0--0-0-0--0-0-0----0-0-0----0-0-0-----0-0-0------
E:------------------------------------------------------


G:-0-2-3-0-2----0-----------------------------
D:-----------3----2-3-0-2----0-2-3-0-2--------
A:------------------------3------------3--0---
E:--------------------------------------------

If you have questions according to the order of the parts e-mail me!

Enjoy it!
Viel SpaƟ!

Transcribed by Marco "Funky Stone" Scheidweiler
Comments or suggestions, please email me at MrcSchdwlr@aol.com
  development and support by
dmitry ivanov