rock
 
|tablatures   |lyrics   |discussion forums   |more tabs @ XGuitar.com

Slayer tabs

Memories Of Tommorow guitar tab

Band: Slayer 
Song: Memories of Tomorrow  (Suicidal Tendencies) 
Album: Undisputed Attitude (Japan) 
Tabbed by: James (tgorman@shentel.net) 
 
This is the first song I've tried to tab, so it might not be all right,  
but it's close. 
Tuned down 1/2 step  low to high (Eb Ab Db Gb Bb Eb) 
 
Riff 1 
|-----------------------| 
|-----------------------| 
|-----------------------| 
|----5----5----5----5---| 
|----3----3----3----3---| 
|-----------------------| 
 
Fill 1 
|--------| 
|--------| 
|--------| 
|--------| 
|---x/---| 
|---x/---| 
pick scrape 
 
Riff 2 
|---------------------------| 
|---------------------------| 
|---------------------------| 
|--------------------5--5---| 
|--------------------3--3---| 
|----7--5--0--5--7----------| 
  PM............... 
 
Riff 3 
 Memories of tomorrow.... 
|-----------------------------------| 
|-----------------------------------| 
|-----------------------------------| 
|---5-5-----7-7-----9-9-----11-11---| 
|---3-3--0--5-5--0--7-7--0---9--9---| 
|-----------------------------------| 
 
Order: 
 
Riff 1 
Fill 1 
Riff 2   x4 
Riff 3   x2 
Riff 2   x4 
Fill 1 
Riff 2   x4 
Riff 3   x2 
Riff 2   x4 
Pause 
Riff 2   x4 
Riff 3   x2 
Riff 2   x4 
Pause 
Fill 1 
Riff 1
  development and support by
dmitry ivanov