rock
 
|tablatures   |lyrics   |discussion forums   |more tabs @ XGuitar.com

Slayer tabs

Mandatory Suicide guitar tab

SONG: Mandatory Suicide 
ARTIST: Slayer 
ALBUM: South Of Heaven 
Tabbed by: David Lichter (lichter@ebox.tninet.se) 
 
 
PM = Palm Mute 
 
 
Tune down 1/2 step to Eb Ab Db Gb Bb Eb 
 
 
Intro: 8x Guitar 1      Guitar 2 
Eb|-----------------| |------------------| 
Bb|-----------------| |------------------| 
Gb|-----------------| |--9-8----10-9-----| 
Db|-----------------| |------7-----------| 
Ab|--5--4--3--2-----| |------------------| 
Eb|--3--2--1--0-----| |------------------| 
 
   4x 
Eb|------------------------| 
Bb|------------------------| 
Gb|------------------------| 
Db|------------------------| 
Ab|--6--3-3--2-------------| 
Eb|--4--1-1--0-------------| 
 
     
Eb|------------------------| 
Bb|------------------------| 
Gb|------------------------| 
Db|------------------------| 
Ab|-----5-----4-----3------| 
Eb|--0--3--0--2--0--1------| 
 
 Murder at your every foot step... 
Eb|------------------------| 
Bb|------------------------| 
Gb|------------------------| 
Db|------------------------| 
Ab|--6--3-3--2-2-2-2-2-2---| 
Eb|--4--1-1--0-0-0-0-0-0---| 
          PM|-----------| 
 
     Burn! 
Eb|------------------------| 
Bb|------------------------| 
Gb|------------------------| 
Db|-----------9-8----------| 
Ab|--2--2---------7--------| 
Eb|--0--0------------------| 
 
 
Eb|------------------------| 
Bb|------------------------| 
Gb|------------------------| 
Db|------------------------| 
Ab|--9--8--4/7-------------| 
Eb|--7--6--2/5-------------| 
 
 Ambushed by the spray of lead... 
Eb|------------------------| 
Bb|------------------------| 
Gb|------------------------| 
Db|------------------------| 
Ab|--6--3-3--2-2-2-2-2-2---| 
Eb|--4--1-1--0-0-0-0-0-0---| 
          PM|-----------| 
 
  Suicide Suicide Suicide... 
Eb|------------------------| 
Bb|------------------------| 
Gb|------------------------| 
Db|------------------------| 
Ab|-----5-----4-----3------| 
Eb|--0--3--0--2--0--1------| 
 
 
Eb|-----------------| |------------------| 
Bb|-----------------| |------------------| 
Gb|-----------------| |--9-8----10-9-----| 
Db|-----------------| |------7-----------| 
Ab|--5--4--3--2-----| |------------------| 
Eb|--3--2--1--0-----| |------------------| 
 
 
 
Solo 
 
 
Eb|------------------------| 
Bb|------------------------| 
Gb|------------------------| 
Db|-----------9-8----------| 
Ab|--2--2---------7--------| 
Eb|--0--0------------------| 
 
Eb|------------------------| 
Bb|------------------------| 
Gb|------------------------| 
Db|------------------------| 
Ab|--9--8--4/7-------------| 
Eb|--7--6--2/5-------------| 
 
 
Holes burn deep in your chest... 
Eb|------------------------| 
Bb|------------------------| 
Gb|------------------------| 
Db|------------------------| 
Ab|--6--3-3--2-2-2-2-2-2---| 
Eb|--4--1-1--0-0-0-0-0-0---| 
          PM|-----------| 
 
  Suicide Suicide Suicide... 
Eb|-------------------------| 
Bb|-------------------------| 
Gb|-------------------------| 
Db|-------------------------| 
Ab|-----5-----4-----3-----2-| 
Eb|--0--3--0--2--0--1-----0-| 
 
 
Outro: 
   
Eb|------------------------| 
Bb|------------------------| 
Gb|------------------------| 
Db|------------------------| 
Ab|--2--3--5--3--2---------| 
Eb|--0--1--3--1--0---------| 
 
 
 
 
 
 
 
 
 
 
 
 
 
 
 
 
 
 
 
 
 
 
 
 
 
mandatory suicide (solo 1) 
album: south of heaven 
slayer 
 
tabbed by Rudy Guzman 
 
solo 1 
       ----------- 
eb------------------------------17b-17b------------------------------------------* 
 
Bb-17-15b-15-15-15--17p15-17p15---------17p15-17p15-17b-15h17p15----15-----------* 
 
Gb---------------------------------------------------------------16----16-16b-16b* 
 
Db-------------------------------------------------------------------------------* 
 
Ab-------------------------------------------------------------------------------* 
 
Eb-------------------------------------------------------------------------------* 
 
eb--------------------------------------------------------7-10-7-* 
Bb----------------------------------------------7-10-7-10--------* 
Gb--------------------------------------7-9-7-9------------------* 
Db-15-12-13-12-13\--------------7-9-7-9--------------------------* 
Ab------------------7-10-7-10-7----------------------------------* 
Eb---------------------------------------------------------------* 
                   pm  . .  . . . . . . 
 
    t       t       t       t       t       t       t       t        t 
eb-12-10p7-12-10p7-12-10p7-12-10p7-13-11p8-14-12p9-14-12p9-15-13p10-16-14p11* 
 
Bb--------------------------------------------------------------------------* 
 
Gb--------------------------------------------------------------------------* 
 
Db--------------------------------------------------------------------------* 
 
Ab--------------------------------------------------------------------------* 
 
Eb--------------------------------------------------------------------------* 
 
    t        t        t        t        t 
eb-17-15p12-18-16p13-19-17p14-20-18p15-21-19p16--22\----------------------* 
 
Bb---------------------------------------------------21b-21~~~-21p18-21p18* 
 
Gb------------------------------------------------------------------------* 
 
Db------------------------------------------------------------------------* 
 
Ab------------------------------------------------------------------------* 
 
Eb------------------------------------------------------------------------* 
 
 
 
eb--------------------------------------------------------* 
Bb--------------------------------------------------------* 
Gb-21b-21b-21~~-21~~--/20-/21-/22-/21-/20-----------------* 
Db--------------------------------------------------------* 
Ab--------------------------------------------------------* 
Eb--------------------------------------------------------*
  development and support by
dmitry ivanov