rock
 
|tablatures   |lyrics   |discussion forums   |more tabs @ XGuitar.com

Slayer tabs

Love To Hate guitar tab

LOVE TO HATE 
ALBUM: DIABOLUS IN MUSICA 
SLAYER 
 
TABBED BY RUDY GUZMAN 
 
D TUNNING 
    
                            enter my mind can you stop the rage... 
          play 4 times       play 8 times 
eb:|-----------------------|----------------------| 
Bb:|-----------------------|----------------------| 
Gb:|-----------------------|----------------------| 
Db:|-----------------------|----------------------| 
Ab:|-15\-------7-6-6-6-6-6-|-15\------7-6-6-6-6-6-| 
 D:|-15\--3h4--7-6-6-6-6-6-|-15\--3h4-7-6-6-6-6-6-| 
 
 
you love to hate me... 
gt1 play 4 times     gt2 
:-------------------|--------------------| 
:-------------------|--------------------| 
:-------------------|--------------------| 
:-------------------|-3-3-3-2-3/6-6-6-6--| 
:-------------------|-1-1-1-0-1/4-4-4-4--| 
:-3-3-3-2-3/6-6-6-6-|--------------------| 
 
 
take what i want primordial ground... 
 play 8 times 
:------------------------|  
:------------------------| 
:------------------------| 
:------------------------| 
:-15\-------7-6-6-6-6-6--| 
:-15\--3h4--7-6-6-6-6-6--| 
 
 
play 2 times 
:-------------------------------| 
:-------------------------------| 
:-------------------------------| 
:------8-7-------6-5------------| 
:--5-6-----8-7-------6-5-4------| 
:0-------------0------------7-6-| 
 
 
absolute reign...       you love to hate me... 
  play 8 times          gt1  play 4 times                                                                                                            
:----------------------|-------------------| 
:----------------------|-------------------| 
:----------------------|-------------------| 
:----------------------|-------------------| 
:15\-------7-6-6-6-6-6-|-------------------| 
:15\--3h4--7-6-6-6-6-6-|-3-3-3-2-3/6-6-6-6-| 
 
 
                        gt2 
:----------------------|-------------------| 
:----------------------|-------------------| 
:----------------------|-------------------| 
:----------------------|-3-3-3-2-3-6-6-6-6-| 
:----------------------|-1-1-1-0-1/4-4-4-4-| 
:----------------------|-------------------| 
 
 
   
solo 
  bend slowly             
:-------------------------------------------------------------------| 
:-20b---------20b-20b-20b-20b~~---20b--20\--------------------------| 
:-19b---------19b-19b-19b-19b~~---19b--19\--------------------------| 
:--------------------------------------------10-9-------------------| 
:--------------------------------------------------12-11--8-7-------| 
:-------------------------------------------------------------10-9\-| 
 
 
            play 5 times 
:----------|-------------|-------------------| 
:----------|-------------|-------------------| 
:-14-13-13-|----13-14-16-|-14-13----13-14-13-| 
:----------|-15----------|-------15----------| 
:----------|-------------|-------------------| 
:----------|-------------|-------------------| 
 
 
 
:---------------------------------------------12-13-12-13-15-13-12-| 
:------------------------------------12-13-15----------------------| 
:---13-14-16-14-13----13-14-16-14-13-------------------------------| 
:15----------------15----------------------------------------------| 
:------------------------------------------------------------------| 
:------------------------------------------------------------------| 
 
 
 
:----12-13-15/20-19~~~------------------------| 
:-15---------------------13b-13b-13b-13b-13\--| 
:------------------------12b-12b-12b-12b-12\--| 
:---------------------------------------------| 
:---------------------------------------------| 
:---------------------------------------------| 
 
 
        bar bar   note: i'm not sure about this.       pick slide 
:-----------------------------------------------------------------| 
:-12b-------------12-13-x-14-15-x-16-17-19-x-20-21-22-------------| 
:-12b-------------12-13-x-14-15-x-16-17-19-x-20-21-22-------------| 
:------------0-------------------------------------------x\-------| 
:--------0-----------------------------------------------x\-------| 
:-----------------------------------------------------------------| 
 
enter my mind can you... you love to hate me.. 
   play 8 times          gt1   play 4 times 
:-----------------------*-------------------| 
:-----------------------*-------------------| 
:-----------------------*-------------------| 
:-----------------------*-------------------| 
:-15\-------7-6-6-6-6-6-*-------------------| 
:-15\--3h4--7-6-6-6-6-6-*-3-3-3-2-3/6-6-6-6-| 
 
 
                        desensitize the world 
                        gt2 
                        :-------------------| 
                        :-------------------| 
                        :-------------------| 
                        :-3-3-3-2-3/6-6-6-6-| 
                        :-1-1-1-0-1/4-4-4-4-| 
                        :-------------------| 
 
 
gt1     play 3 times 
:-------------------------------------------| 
:-------------------------------------------| 
:-------------------------------------------| 
:-------8-7--------6-5----------------------| 
:--5-6------8-7--------6-5-4----------------| 
:0--------------0------------7-6------------| 
 
 
gt1 
:----------------------------------------------------| 
:----------------------------------------------------| 
:----------------------------------------------------| 
:----------------------------------------------------| 
:-0--------------------------------------------------| 
:-0--------------------------------------------------| 
 
 
gt2 
:------------------------------------------------------| 
:------------------------------------------------------| 
:------7-6----------6-5--------------------------------| 
:-----------7-6----------6-5-4-------------------------| 
:--5-6--------------------------5-4--------------------| 
:0---------------0-------------------------------------| 
 
 
:-----------------------------| 
:-----------------------------| 
:-----------------------------| 
:-----------------------------| 
:-0---------------------------| 
:-0---------------------------| 
 
 
 
 
 
 
 
 
 
 
 
 
 
Love to Hate 
by Slayer 
From Diabolus in Musica 
Tabbed by SS-3 
ss-3@slayerized.com 
Kind of Guitar-B.C. Rich Warlock (black w/ yellow lightning) 
 
It's not perfect but it sounds 
just like it so, I guess that's 
cool 
 
\-Slide up 
/-Slide down 
.-Palm mute 
~-Vibrato 
 
-------------------------------------------------------------------------- 
 
E|----------------------------------| 
B|-8-8-8----------------------------| 
G|-7-7-7----------------------------| Starts with one guitar 
D|-5-5-5----------------------------| but overall play 
A|-5-5-5-6-6-6-/9-9-9-8-8-8-8-7-7-7-| 12 times 
E|-------4-4-4-/7-7-7-6-6-6-6-5-5-5-| 
 
E|---------------------------------| 
B|---------------------------------| 
G|---------------------------------| Play 
D|---------------------------------| 3 times 
A|-4-4-4-2-2-2-5-5-5-8-8-8-8-7-7-7-| 
E|-2-2-2-0-0-0-3-3-3-6-6-6-6-5-5-5-| 
. . . . . . . . . . . . . . . . 
 
E|-------------------------------------------------| 
B|-------------------------------------------------| 
G|-------------------------------------------------| 
D|-11-11-11-10-10-10-12-12-12-15-15-15-15-14-14-14-| 
A|-9--9--9--7--7--7--10-10-10-13-13-13-13-12-12-12-| 
E|-------------------------------------------------| 
 
E|----------------------------------| 
B|-8-8-8----------------------------| 
G|-7-7-7----------------------------| Play 
D|-5-5-5----------------------------| 8 times 
A|-5-5-5-6-6-6-/9-9-9-8-8-8-8-7-7-7-| 
E|-------4-4-4-/7-7-7-6-6-6-6-5-5-5-| 
 
E|-------------------------------------| 
B|-------------------------------------| 
G|-------------------------------------| Play 
D|-------10~--9---------8-7------------| 2 times---throw in some artificial 
A|---7-8--------10-9~-------8-7-6------| harmonics to make it 
E|-0------------------0-----------7-6~-| sound cool 
 
E|----------------------------------| 
B|-8-8-8----------------------------| 
G|-7-7-7----------------------------| Play 
D|-5-5-5----------------------------| 8 times 
A|-5-5-5-6-6-6-/9-9-9-8-8-8-8-7-7-7-| 
E|-------4-4-4-/7-7-7-6-6-6-6-5-5-5-| 
 
E|---------------------------------| 
B|---------------------------------| 
G|---------------------------------| Play 
D|---------------------------------| 3 times 
A|-4-4-4-2-2-2-5-5-5-8-8-8-8-7-7-7-| 
E|-2-2-2-0-0-0-3-3-3-6-6-6-6-5-5-5-| 
. . . . . . . . . . . . . . . . 
 
E|-------------------------------------------------| 
B|-------------------------------------------------| 
G|-------------------------------------------------| 
D|-11-11-11-10-10-10-12-12-12-15-15-15-15-14-14-14-| 
A|-9--9--9--7--7--7--10-10-10-13-13-13-13-12-12-12-| 
E|-------------------------------------------------| 
 
E|---------------------------------| 
B|---------------------------------| 
G|---------------------------------| Play Under Solo 
D|---------------------------------| 8 times 
A|-4-4-4-4-4-4-4-4-2-2-2-5-5-5-8\--| 
E|-2-2-2-2-2-2-2-2-0-0-0-3-3-3-6\--| 
 
E|---------------------------------| |---| 
B|---------------------------------| |---| 
G|---------------------------------| Play Under Solo |---| 
D|---------------------------------| 2 times |---| 
A|-4-4-4-2-2-2-5-5-5-8-8-8-8-7-7-7-| |-2-| 
E|-2-2-2-0-0-0-3-3-3-6-6-6-6-5-5-5-| |-0-| 
. . . . . . . . . . . . . . . . . 
 
E|---| 
B|---| This part is after the silence 
G|---| Let this ring while sliding your 
D|-2-| pick up and down the fretboard 
A|-2-| It's not what Slayer does but it sounds cool 
E|-0-| 
 
E|----------------------------------| 
B|-8-8-8----------------------------| 
G|-7-7-7----------------------------| Play 
D|-5-5-5----------------------------| 8 times 
A|-5-5-5-6-6-6-/9-9-9-8-8-8-8-7-7-7-| 
E|-------4-4-4-/7-7-7-6-6-6-6-5-5-5-| 
 
E|---------------------------------| 
B|---------------------------------| 
G|---------------------------------| Play 
D|---------------------------------| 3 times 
A|-4-4-4-2-2-2-5-5-5-8-8-8-8-7-7-7-| 
E|-2-2-2-0-0-0-3-3-3-6-6-6-6-5-5-5-| 
. . . . . . . . . . . . . . . . 
 
E|-------------------------------------------------| |---| 
B|-------------------------------------------------| |---| 
G|-------------------------------------------------| |---| 
D|-11-11-11-10-10-10-12-12-12-15-15-15-15-14-14-14-| |---| 
A|-9--9--9--7--7--7--10-10-10-13-13-13-13-12-12-12-| |-2-| 
E|-------------------------------------------------| |-0-| 
. 
 
E|-------------------------------------| 
B|-------------------------------------| 
G|-------------------------------------| For the rest of the song 
D|-------10~--9---------8-7------------| don't use anymore 
A|---7-8--------10-9~-------8-7-6------| artificial harmonics 
E|-0------------------0-----------7-6~-| 
 
E|-------------------------------------| 
B|-------------------------------------| 
G|----------------------8-7------------| 
D|-------10~--9-------------8-7-6------| 
A|--------------10-9~-------------7-6~-| 
E|-0-7-8--------------0----------------| 
 
E|-------------------------------------| |---| 
B|-------------------------------------| |---| 
G|-------10~--9---------8-7------------| |---| 
D|---7-8--------10-9~-------8-7-6------| |-2-| 
A|--------------------------------7-6~-| |-2-| 
E|-0------------------0----------------| |-0-| 
 
 
 
 
 
 
 
 
 
 
 
 
 
 
 
 
 
 
 
 
 
 
 
 
 
Love to Hate 
by Slayer 
From Diabolus in Musica 
Tabbed by SS-3 
ss-3@slayerized.com 
 
It's not perfect but it sounds 
just like it so, I guess that's  
cool 
 
\-Slide up 
/-Slide down 
~-Vibrato 
A.H.-Artificial Harmonics 
|-----------| 
|-x-x-x-x-x-| 
|-----------|-The 'x' means to palm mute the notes 
|-----5-----| 
|---4---6---| 
|-3-------7-| 
 
---------------------------------------------------------------------- 
 
|----------------------------------| 
|-8-8-8----------------------------| 
|-7-7-7----------------------------| Starts with one guitar 
|-5-5-5----------------------------| but overall play 12x 
|-5-5-5-6-6-6-/9-9-9-8-8-8-8-7-7-7-| 
|-------4-4-4-/7-7-7-6-6-6-6-5-5-5-| 
 
|---------------------------------| 
|-x-x-x-x-x-x-x-x-x-x-x-x-x-x-x-x-| 
|---------------------------------| Play 
|---------------------------------| 3x 
|-4-4-4-2-2-2-5-5-5-8-8-8-8-7-7-7-| 
|-2-2-2-0-0-0-3-3-3-6-6-6-6-5-5-5-| 
 
|-------------------------------------------------| 
|-------------------------------------------------| 
|-------------------------------------------------| 
|-11-11-11-10-10-10-12-12-12-15-15-15-15-14-14-14-| 
|-9--9--9--7--7--7--10-10-10-13-13-13-13-12-12-12-| 
|-------------------------------------------------| 
 
|----------------------------------| 
|-8-8-8----------------------------| 
|-7-7-7----------------------------| Play 
|-5-5-5----------------------------| 8x 
|-5-5-5-6-6-6-/9-9-9-8-8-8-8-7-7-7-| 
|-------4-4-4-/7-7-7-6-6-6-6-5-5-5-| 
 
|-------------------------------------| 
|-------------------------------------| Play 
|-------------------------------------| 2x 
|-------10~--9---------8-7------------| Throw in some A.H. 
|---7-8--------10-9~-------8-7-6------| to make it sound 
|-0------------------0-----------7-6~-| cool 
 
|----------------------------------| 
|-8-8-8----------------------------| 
|-7-7-7----------------------------| Play 
|-5-5-5----------------------------| 8x 
|-5-5-5-6-6-6-/9-9-9-8-8-8-8-7-7-7-| 
|-------4-4-4-/7-7-7-6-6-6-6-5-5-5-| 
 
|---------------------------------| 
|-x-x-x-x-x-x-x-x-x-x-x-x-x-x-x-x-| 
|---------------------------------| Play 
|---------------------------------| 3x 
|-4-4-4-2-2-2-5-5-5-8-8-8-8-7-7-7-| 
|-2-2-2-0-0-0-3-3-3-6-6-6-6-5-5-5-| 
 
|-------------------------------------------------| 
|-------------------------------------------------| 
|-------------------------------------------------| 
|-11-11-11-10-10-10-12-12-12-15-15-15-15-14-14-14-| 
|-9--9--9--7--7--7--10-10-10-13-13-13-13-12-12-12-| 
|-------------------------------------------------| 
 
|---------------------------------| 
|---------------------------------| 
|---------------------------------| Play Under Solo 
|---------------------------------| 8x 
|-4-4-4-4-4-4-4-4-2-2-2-5-5-5-8\--| 
|-2-2-2-2-2-2-2-2-0-0-0-3-3-3-6\--| 
 
|---------------------------------|-----------------|---| 
|-x-x-x-x-x-x-x-x-x-x-x-x-x-x-x-x-|-----------------|-x-| 
|---------------------------------|-Play-Under-Solo-|---| 
|---------------------------------|-----2-times-----|---| 
|-4-4-4-2-2-2-5-5-5-8-8-8-8-7-7-7-|-----------------|-2-| 
|-2-2-2-0-0-0-3-3-3-6-6-6-6-5-5-5-|-----------------|-0-| 
 
|---| 
|---| This part is after the silence 
|---| Let this ring while sliding your 
|-2-| pick up and down the fretboard 
|-2-| It's not what Slayer does but it sounds cool 
|-0-| 
 
|----------------------------------| 
|-8-8-8----------------------------| 
|-7-7-7----------------------------| Play 
|-5-5-5----------------------------| 8x 
|-5-5-5-6-6-6-/9-9-9-8-8-8-8-7-7-7-| 
|-------4-4-4-/7-7-7-6-6-6-6-5-5-5-| 
 
|---------------------------------| 
|-x-x-x-x-x-x-x-x-x-x-x-x-x-x-x-x-| 
|---------------------------------| Play 
|---------------------------------| 3x 
|-4-4-4-2-2-2-5-5-5-8-8-8-8-7-7-7-| 
|-2-2-2-0-0-0-3-3-3-6-6-6-6-5-5-5-| 
 
|-------------------------------------------------| |---| 
|-------------------------------------------------| |-x-| 
|-------------------------------------------------| |---| 
|-11-11-11-10-10-10-12-12-12-15-15-15-15-14-14-14-| |---| 
|-9--9--9--7--7--7--10-10-10-13-13-13-13-12-12-12-| |-2-| 
|-------------------------------------------------| |-0-| 
 
|-------------------------------------| 
|-------------------------------------| 
|-------------------------------------| For the rest of the song 
|-------10~--9---------8-7------------| don't use anymore A.H. 
|---7-8--------10-9~-------8-7-6------| 
|-0------------------0-----------7-6~-| 
 
|-------------------------------------| 
|-------------------------------------| 
|----------------------8-7------------| 
|-------10~--9-------------8-7-6------| 
|--------------10-9~-------------7-6~-|  
|-0-7-8--------------0----------------| 
 
|-------------------------------------| |---| 
|-------------------------------------| |---| 
|-------10~--9---------8-7------------| |---| 
|---7-8--------10-9~-------8-7-6------| |-2-| 
|--------------------------------7-6~-| |-2-| 
|-0------------------0----------------| |-0-| 
 
---------------------------------------------------------------------- 
 
That's all
  development and support by
dmitry ivanov