rock
 
|tablatures   |lyrics   |discussion forums   |more tabs @ XGuitar.com

Slayer tabs

Live Undead guitar tab

LIVE UNDEAD 
				By:  Slayer 
		Tabbed by:  David Schellhaas (dschellhaas@hotmail.com) 
 
Tuning:  Eb,Ab,Db,Gb,Bb,eb (half step down!!) 
 
Intro.- 
|-----------------------------------| 
|-----------------------------------| 
|-9------8------------7-------------| 
|-9------8------------7-------------| 
|-7------6-----6h9p6--5-------------| 
|---0000---00-----------0000-6-5----| 
  pm----   --           ----   
 
Verse (there are a few variations, but it's all w/these notes)- 
|--------------------------------------------------| 
|--------------------------------------------------| 
|--------------------------------------------------| 
|--------------------------------------------------| 
|-7-----7-----7-----7-----8-----8-----8-----8------| 
|---777---777---777---777---888---888---888---888--| 
  pm---   ---   ---   ---   ---   ---   ---   ---    
 
Chorus thingy- 
|---------------------------------| 
|---------------------------------| 
|---------------------------------| 
|---------6\5---6----------8------| 
|-7----8--4\3---4--7----8--6------| 
|-5----6-----------5----6---------| 
 
Pre-Chorus thingy- 
|--------------------------------------------------------------------| 
|--------------------------------------------------------------------| 
|--------------------------------------------------------------------| 
|--------------------------------------------------------------------| 
|------8--------8--------8----6--------8--------8--------8----7-6-7--| 
|-0000-6-000000-6-000000-6-00-4---0000-6-000000-6-000000-6-00-5-4-5--| 
pm----   ------   ------   --     ----   ------   ------   ---    
 
Riff that's played w/lead- 
|------------------------------| 
|------------------------------| 
|------------------------------| 
|------------------------------| 
|-------7h10-7--------7h10-7---| 
|-00000--------000000----------| 
pm-----        ------   
 
This may be missing a few backup riffs, if so, I'll send them in at some  
point... 
 
 
 
 
 
 
 
 
 
 
 
 
 
 
 
 
 
 
 
 
 
 
 
                        Live Undead - South of Heaven                            
                        Verse Riff over and over again. 
                        Killersatan@hotmail.com 
                        Transcribed by Neby 
                                                                         
E||----------------------|----------------------|----------------------| 
B||----------------------|----------------------|----------------------| 
G||----------------------|----------------------|----------------------| 
D||--2-------------------|--2-------------------|--2-------------------| 
A||-------1----0---------|-------1----0---------|-------1----0---------| 
E||-----------------0----|-----------------0----|-----------------0----| 
 
 
                                                                      
----------------------|----------------------|----------------------| 
----------------------|----------------------|----------------------| 
----------------------|----------------------|----------------------| 
--2-------------------|--3-------------------|--3-------------------| 
-------1----0---------|-------1----0---------|-------1----0---------| 
-----------------0----|-----------------0----|-----------------0----| 
 
 
                                                                      
----------------------|----------------------|----------------------| 
----------------------|----------------------|----------------------| 
----------------------|----------------------|----------------------| 
--3-------------------|--3-------------------|--2-------------------| 
-------1----0---------|-------1----0---------|-------1----0---------| 
-----------------0----|-----------------0----|-----------------0----| 
 
 
                                                                      
----------------------|----------------------|----------------------| 
----------------------|----------------------|----------------------| 
----------------------|----------------------|----------------------| 
--2-------------------|--2-------------------|--2-------------------| 
-------1----0---------|-------1----0---------|-------1----0---------| 
-----------------0----|-----------------0----|-----------------0----| 
 
 
                                                                      
----------------------|----------------------|----------------------| 
----------------------|----------------------|----------------------| 
----------------------|----------------------|----------------------| 
--3-------------------|--3-------------------|--3-------------------| 
-------1----0---------|-------1----0---------|-------1----0---------| 
-----------------0----|-----------------0----|-----------------0----| 
 
 
                                                                      
----------------------|----------------------|----------------------| 
----------------------|----------------------|----------------------| 
----------------------|----------------------|----------------------| 
--3-------------------|--2-------------------|--2-------------------| 
-------1----0---------|-------1----0---------|-------1----0---------| 
-----------------0----|-----------------0----|-----------------0----| 
 
 
                                                                      
----------------------|----------------------|----------------------| 
----------------------|----------------------|----------------------| 
----------------------|----------------------|----------------------| 
--2-------------------|--2-------------------|--3-------------------| 
-------1----0---------|-------1----0---------|-------1----0---------| 
-----------------0----|-----------------0----|-----------------0----| 
 
 
                                                                       
----------------------|----------------------|----------------------|| 
----------------------|----------------------|----------------------|| 
----------------------|----------------------|----------------------|| 
--3-------------------|--3-------------------|--3-------------------|| 
-------1----0---------|-------1----0---------|-------1----0---------|| 
-----------------0----|-----------------0----|-----------------0----||
  development and support by
dmitry ivanov