rock
 
|tablatures   |lyrics   |discussion forums   |more tabs @ XGuitar.com

Slayer tabs

Live Undead bass tab

Band: Slayer
Song: Live Undead
Album: South of Heaven
Year: 1988
Tabbed By David Siddons (farmer_siddons@hotmail.com)
Tuning: Half Step Down

Intro:
|------------------------------------------------------------------------|
|------------------------------------------------------------------------|
|-7----------6-----6h9p6-5--------------7---------6-----6h9p6------------|
|----0-0-0-0---0-0---------0-0-0-0-6-5----0-0-0-0---0-0-------0-0-0-0-6-4|

Verse:
|----------------------------------------------------------------|
|----------------------------------------------------------------|
|-7-------7-------7-------7-------8-------8-------8-------8------|
|---7-6-0---7-6-0---7-6-0---7-6-0---7-6-0---7-6-0---7-6-0---7-6-0|

Chorus:
|-------------------------------------------------------|
|-------------------------------------------------------|
|----------------------7\\6-------------------------7\\6-7|
|-5--6--9-\\8--9-\\5--6--------5--6--9-\\8---9-\\5--6-------|

Bridge:
|----------------------------------------------------------|
|----------------------------------------------------------|
|----------------------------------------------------------|
|-0-0-0-0-6-3-0-0-0-0-0-0-6-3-0-0-0-0-0-0-6-3-0-0-0-0-0-0-1|

|----------------------------------------------------------------|
|----------------------------------------------------------------|
|----------------------------------------------------------------|
|-0-0-0-0-6-3-0-0-0-0-0-0-6-3-0-0-0-0-0-0-6-3-0-0-0-0-0-0-5-5-5-6|

Solo:
|---------------------|
|-------------5h4p0h2-|
|---------------------|
|-0-0-0-0-0-0---------|
  development and support by
dmitry ivanov