rock
 
|tablatures   |lyrics   |discussion forums   |more tabs @ XGuitar.com

Slayer tabs

Killing Fields guitar tab

from:jamesj@svpal.org 
 
                                    SLAYER 
 
                                KILLING FIELDS    
 
 
Killer song to scream the lyrics while jamming alone =) 
 
I always have my guitar tuned down to Eb so... whatever fits  
your sound 
 
 
  drums 
|---------------|---------------------------------------------------|  
|---------------|---------------------------------------------------|  
|---------------|---------------------------------------------------|  
|---------------|---------------------------------------------------|  
|---------------|------2----------------------(2)------------(2)----|  
|---------------|--0---0----------------------(0)------------(0)----|  
                                                               
 
         pick scrape 
|-------------------------------------------------------------------|  
|-------------------------------------------------------------------|  
|-------------------------------------------------------------------|  
|-------------------------------------------------------------------|  
|----X-\---------X-\-------X-\-------X-\----------------------------|  
|----X-\---------X-\-------X-\-------X-\----------------------------|  
 
 
Rhythm fig 1         
 
       P.M....     .......       ......... 
|-------------------------------------------------------------------|  
|-------------------------------------------------------------------|  
|-------------------------------------------------------------------|  
|-------------------------------------------------------------------|  
|-0--2--------2--3---------2---2----------2--5----------------------|  
|-0--0-0-0-0-00--1-0-0-0-0-0---4-0-0-0-0--0--3----------------------|  
 
             
 
Rhythm fig 1 (cont)           
 
       P.M....     .......       ......... 
|-------------------------------------------------------------------|  
|-------------------------------------------------------------------|  
|-------------------------------------------------------------------|  
|-------------------------------------------------------------------|  
|-0--2--------2--3---------2---2----------2--5---6------------------|  
|-0--0-0-0-0-00--1-0-0-0-0-0---4-0-0-0-0--0--3---4------------------|  
 
 
 
  
 
|-------------------------------------------------------------------|  
|-------------------------------------------------------------------|  
|---------------------------------------------------2**-------------|  
|----------------------------------2/__*----------------------------|  
|--2----------------------------------------------------------------|  
|--0----------------------------------------------------------------|  
 
                                       *pull up/down   **pull up on bar    
 
 
 
 
 
P.M....................        P.M................... 
|-------------------------------------------------------------------|  
|-------------------------------------------------------------------|  
|-------------------------------------------------------------------|  
|-------------------------------------------------------------------|  
|------------------------4--3-------------------------4--3----------|  
|-300200200100600300200--2--1--300200200100600300200--2--1----------|  
 
 
heavy p.m..........................                           
|-------------------------------------------------------------------|  
|-------------------------------------------------------------------|  
|-------------------------------------------------------------------|  
|-------------------------------------------------------------------|  
|-2-2-2-2--2-3-3-3-2-4-4-4-2-5-5-5----------------------------------|  
|-0-0-0-0--0-1-1-1-0-2-2-2-0-3-3-3----------------------------------|  
 
 
 
heavy P.M..........................                   
|-------------------------------------------------------------------|  
|-------------------------------------------------------------------|  
|-------------------------------------------------------------------|  
|-------------------------------------------------------------------|  
|-2-2-2-2--2-3-3-3-2-4-4-4-2-5---6----------------------------------|  
|-0-0-0-0--0-1-1-1-0-2-2-2-0-3---4----------------------------------|  
 
 
 
 
 
                                       (play 6 times) 
 
P.M....................................... 
|-----------------------------------------|  
|-----------------------------------------|  
|-----------------------------------------|  
|-----------------------------------------|  
|-----------------------------------------|  
|-0-0-0---0----0---0----0-0-0---0---0-0-0-|  
 
                                    
 
|-------------------------------------------------------------------|  
|-------------------------------------------------------------------|  
|-------------------------------------------------------------------|  
|------------------------------------------------------------3------|  
|--------3-----------------6----------------3----------------1------|  
|-0-0-0--1--0-0-0---0-0-0--4--0-0-0--0-0-0--1--0-0-0---0-0-0--------|  
 
                                                 
|-------------------------------------------------------------------|  
|-------------------------------------------------------------------|  
|-------------------------------------------------------------------|  
|-------------------------------------------------------------------|  
|---------------3--------------6--------------3---------------6--4--|  
|-0-0-0--0-0-0--1-0-0-0--0-0-0-4-0-0-0--0-0-0-1-0-0-0--0-0-0--6--4--|  
 
                                                 
 
play w/ lyrics 
 
 
Chorus       w/ "A sociopath with empty eyes"etc 
 
|-------------------------------------------------------------------|  
|-------------------------------------------------------------------|  
|-------------------------------------------------------------------|  
|-------------------------------------------------------------------|  
|--2------1--2--5----4-------------2-----1--2--5---4-----7-\--------|  
|--2------1--2--5----4-------------2-----1--2--5---4-----7-\--------|  
 
               
2nd Chorus                                                   
 
|-------------------------------------------------------------------|  
|-------------------------------------------------------------------|  
|-------------------------------------------------------------------|  
|-------------------------------------------------------------------|  
|-3---2-3--6---5--------3----2--3--6----5------8-\------------------|  
|-3---2-3--6---5--------3----2--3--6----5------8-\------------------|  
 
 
 
                                Gradually accelerate picking 
P.M............................................................... 
|-------------------------------------------------------------------|  
|-------------------------------------------------------------------|  
|-------------------------------------------------------------------|  
|-------------------------------------------------------------------|  
|-------------------------------------------------------------------|  
|-2-2-2--2-2-2--2-2-2--2-2-2--2-2-2--2-2-2--2-2-2--2-2-2--2-2-2-----|  
 
                                                                 
 
       w/"A choice is made of free will" etc 
 
P.M................................................................ 
|-------------------------------------------------------------------|  
|-------------------------------------------------------------------|  
|-------------------------------------------------------------------|  
|-------------------------------------------------------------------|  
|-------------------------------------------------------------------|  
|-4-4-4--4-4-4-4--4-4-4--4-4-4-4--3-3-3--3-3-3-3-3-3---3-3-3-3------|  
 
 
 
riff b 
 
P.M............................................................... 
|-------------------------------------------------------------------|  
|-------------------------------------------------------------------|  
|-------------------------------------------------------------------|  
|-------------------------------------------------------------------|  
|-------------------------------------------------------------------|  
|-0-0-0--0-0-0-0--0-0-0--0-0-0-0--0-0-0--0-0-0-0-0-0--0-0--0-0------|  
 
        
 
          w/"Decisions to lose control"etc 
 
P.M............................................................... 
|-------------------------------------------------------------------|  
|-------------------------------------------------------------------|  
|-------------------------------------------------------------------|  
|-------------------------------------------------------------------|  
|-------------------------------------------------------------------|  
|-4--4--3----3-3-3-3-3-3-3--3-3-3-3-3-3---2-2-2-2-5-5-5--5-5-5-5----|  
 
  
 
riff b etc 
 
 
solo rhythm 
 
P.M............................................................ 
|-------------------------------------------------------------------|  
|-------------------------------------------------------------------|  
|-------------------------------------------------------------------|  
|-------------------------------------------------------------------|  
|-------------------------------------------------------------------|  
|-1-1-1-1-1-1-1-1-1-1-1--0-0--1-4-4--4-4-44-3-3-3-3-3-3-3-3-3-3-3-3-|  
 
                 
P.M.............................................................. 
|-------------------------------------------------------------------|  
|-------------------------------------------------------------------|  
|-------------------------------------------------------------------|  
|-------------------------------------------------------------------|  
|-------------------------------------------------------------------|  
|-1-1-1-1-1-1-1-1-1-1-1--0-0-1-1-1-4-4-4-4-4--3-3-3-3-6-6-6-6-6-6---|  
 
 
Rhythm fig 1 w/ " A choice is made" again 
 
 
Lyrics: 
 
You know the feeling when adrenaline takes control 
Cant beat the rush that leaves a suicidal hold 
Instinct spares no one destroying the human heart 
The taste of blood can rip your soul apart 
Devils that drive us do not discriminate 
A state of mind that becomes the ultimate end 
Action re-action bloodline is not immune 
To the depth of human nature inside of me and you 
 
A sociopath with empty eyes and no soul 
Paranoid psychotic heart of stone my blood runs cold 
  
Evils of passion can drive reasons to extremes 
Love, hate and murder, Temporary insanity 
On the edge of a demented personality 
Emotional pain is a deadly reality 
 
A Sociopath with empty eyes and no soul 
 
Paranoid psychotic heart of stone my blood runs cold!!! 
 
A choice is made of free will just like the choice to kill 
Decision to lose control my self destructive rationale 
A choice is made, made of free will 
Just like the choice, the choice to kill 
In the speed of the moment, life stands still 
Now you're standing in my killing field 
 
a choice is made of free will just like the choice to kill 
In the speed of the moment, life stands still 
Now you're standing in my killing field! 
 
  
***********************************************************************     
jamesj@svpal.org                    |   Questions/Comments, email  me | 
Face Down Arms Out                  |    I'll respond to all          | 
  Nailed to the Cross of Doubt      |                                 | 
Blood Runs Like Rain                |********************************** 
  Drowning For This World In Vain   |Fav Bands                        | 
Crown Of Black Thorns               |Megadeth/Slayer/Pantera/Sepultura| 
  Human Skin, Ripped and torn       |Deicide/Nailbomb/Fear Factory/   | 
Where is Your Savior now?           |Ministry/Machine Head/CoC        | 
      --Burton C. Bell/Fear Factory | And my own of course            | 
***********************************************************************     
 
 
 
 
 
 
 
 
 
 
 
 
 
 
 
 
 
 
 
 
 
 
 
 
 
 
 
 
 
 
 
 
 
 
killing fields (solo) 
album: divine intervention 
slayer 
 
transcribed by Rudy Guzman 
 
solo 
eb:--------------------------------------------------------------------| 
Bb:--------------------------------------17-12h15-17-14h17-17-15p14p12-| 
Gb:-----------------------------17-12h14-------------------------------| 
Db:--------------------17-12h14----------------------------------------| 
Ab:----------17-12h14--------------------------------------------------| 
Eb:-17-12h15-----------------------------------------------------------| 
     t        t         t        t        t        t        t 
 
 
eb:12/19-19b-19b~~~---16-18-20-18-16-18-16----------------------------------------| 
Bb:----------------------------------------20-18-16-18-16-------------------------| 
Gb:-------------------------------------------------------19-17-16----------------| 
Db:----------------------------------------------------------------18-16-15-16-15-| 
Ab:-------------------------------------------------------------------------------| 
Eb:-------------------------------------------------------------------------------| 
 
 
 
eb:----------------------------------------------------------------------| 
Bb:-------------------------------------------------------------12-13-14-| 
Gb:----------------------------------------------------12-14-15----------| 
Db:-------------------------------------------12-14-15-------------------| 
Ab:-18-16-15-16-15-------------------12-13-15----------------------------| 
Eb:----------------18-16\---12-13-15-------------------------------------| 
 
 
 
     t           t           t           t           t        t        t            
t 
eb:-16-13h16p13-16-13h15p13-16-13h16p15-18-13h15p13-16-15p13-18-16p13-16-13h16p13-16-15p13| 
Bb:---------------------------------------------------------------------------------------| 
Gb:---------------------------------------------------------------------------------------| 
Db:---------------------------------------------------------------------------------------| 
Ab:---------------------------------------------------------------------------------------| 
Eb:---------------------------------------------------------------------------------------| 
 
 
     t           t           t           t           t        t 
eb:-16-13h16p13-16-13h15p13-16-13h16p15-18-13h15p13-16-15p13-18-16p13-| 
Bb:-------------------------------------------------------------------| 
Gb:-------------------------------------------------------------------| 
Db:-------------------------------------------------------------------| 
Ab:-------------------------------------------------------------------| 
Eb:-------------------------------------------------------------------| 
 
 
     t        t 
eb:-20-18p15----------| 
Bb:----------20-18p15-| 
Gb:-------------------| 
Db:-------------------| 
Ab:-------------------| 
Eb:-------------------| 
 
     t           t           t           t           t        t 
eb:-16-13h16p13-16-13h15p13-16-13h16p15-18-13h16p13--20-18p15----------| 
Bb:-----------------------------------------------------------20-18p15-| 
Gb:--------------------------------------------------------------------| 
Db:--------------------------------------------------------------------| 
Ab:--------------------------------------------------------------------| 
Eb:--------------------------------------------------------------------| 
 
 
    t        t 
eb:-------------------------------------------------------------------5/17\7| 
Bb:-------------------------------------------------------------------------| 
Gb:20-17p15-----------------------------------------------------------------| 
Db:---------20-17p15---3AH~~~~--------3h4p3-------5h6p5--------7-9-10-------| 
Ab:-----------------------------3-4-6-------5-6-8-------7-8-10--------------| 
Eb:-------------------------------------------------------------------------|
  development and support by
dmitry ivanov