rock
 
|tablatures   |lyrics   |discussion forums   |more tabs @ XGuitar.com

Slayer tabs

Kill Again guitar tab

Kill Again 
By Slayer 
Tabbed by Gabriel Hidalgo 
 
It looks kinda messy, but all the parts are here. 
 
Intro 
|---------------------|    |------------------------| 
|---------------------|    |------------------------| 
|---------------------|    |------------------------| 
|-4----5-4------4/5/4-|X4  |-4----5----4------------|X4 
|-2----3-2------2/3/2-|    |-2----3----2-----5-4-3--| 
|---00-----0000-------|    |---00---00---00--3-2-1--| 
 
 
|-----------------------------------------------| 
|-----------------------------------------------| 
|-----------------------------------------------| 
|-----------------------------------------------|X4  
|-2222-2222-2222-222-4-3--2222-2222-2222-222--3-|    
|-0000-0000-0000-000-2-1--0000-0000-0000-000--1-| 
 
|--------------------------------------------------------------------| 
|--------------------------------------------------------------------| 
|--------------------------------------------------------------------| 
|--------------------------------------------------------------------|1st 
|--44444-555555-444444-77777777-44444--555555--444444444-------------|guitar 
|--------------------------------------------------------------------| 
|                                                                    | 
|--------------------------------------------------------------------| 
|--------------------------------------------------------------------| 
|--------------------------------------------------------------------| 
|--44444-55555--4444444-7777777-444444-555555--444444444-------------|2nd 
|--------------------------------------------------------------------|Guitar 
|--------------------------------------------------------------------| 
 
|--------------------------------------------------------------------| 
|--------------------------------------------------------------------| 
|--------------------------------------------------------------------| 
|-4-3----------------------------------------------------------------| 
|-2-1--3-5-----------------------------------------------------------| 
|------1-3---111111-22222-111111--4444444-111111-2222222--11111111---| 
 
 
|--------------------------------------------------------------------| 
|--------------------------------------------------------------------| 
|--------------------------------------------------------------------| 
|--------------------------------------------33333333-22222222-------| 
|--44444-5555555--------------22222-33333333-------------------------| 
|----------------33333-444444----------------------------------------| 
 
 
Verse 
|-----------------------------------------------------------| 
|-----------------------------------------------------------| 
|-----------------------------------------------------------| 
|-----------------------------------------------------------| 
|----7----8----7----8--8h10p8-----7----8----7----8---6~-----| 
|-00---00---00---00------------00---00---00---00---0--------| 
 
Chorus (no aparent motive, just kill and kill again.....) 
|---------------------------------------------------| 
|---------------------------------------------------| 
|---------------------------------------------------| 
|-------------------------------------------------3-| 
|--------22222-111111--2--------22222222-11111111-1-| 
|-222222-----------------222222---------------------| 
 
|----------------------------------------------------| 
|----------------------------------------------------| 
|----------------------------------------------------| 
|----3-4-3-----6-7-6----3-4-3------------------------| 
|----1-2-1-----4-5-4----1-2-1-------------2-1--------| 
|-00--------00-------00---------3-2-0-2-3-----2------| 
 
Pre solo riff 
|--------------------------------------------------------------------| 
|--------------------------------------------------------------------| 
|--------------------------------------------------------------------| 
|--77777-8888-77777---77777--11-10--77777-88888-7777--7777--3-8------| 
|--55555-6666-55555---55555--9--8---55555-66666-5555--5555--1-6------| 
|--------------------------------------------------------------------| 
 
Solo rythm 
 
|--------------------------------------------------------------------| 
|--------------------------------------------------------------------| 
|--------------------------------------------------------------------| 
|--------------------------------------------------------------------| 
|--77777-8888-77777---77777--11-10--77777-88888-7777--7777--3-8------| 
|--55555-6666-55555---55555--9--8---55555-66666-5555--5555--1-6------| 
 
 
|--------------------------------------------------------------------| 
|--------------------------------------------------------------------| 
|--------------------------------------------------------------------| 
|--------------------------------------------------------------------| 
|--------------------------------------------------------------------| 
|-1111111--444444444-----00000000000----66666666666666---------------| 
 
 
That's the whole song (i think). Sorry for not tabbing solos, but i can't 
(because i don't know how to play 'em). 
 
 
 
 
 
 
 
 
 
 
 
 
 
 
 
 
 
 
 
 
 
 
 
kill again (solo) 
album: hell awaits 
slayer 
 
transcribed by Rudy Guzman 
 
solo 1 
eb:-------17-19-------19------------------------------------------------------------------| 
Bb:----17-------19-------19-17-20---17-20----17-20----17---20-----------------------------| 
Gb:-17-------------19-------------19------19-------19---19-----19-16-17-16----------------| 
Db:------------------------------------------------------------------------19-16-17-16----| 
Ab:------------------------------------------------------------------------------------19-| 
Eb:---------------------------------------------------------------------------------------| 
 
 
 
:--------------------------------------19\-----------------------------------------------| 
:----------------------------------------------------------------------------------------| 
:----------------------------------------------------------------------------------------| 
:----------------------------------16-------15-16-18-15-16-18-15-16-15-------15----------| 
:16-17-16-----------------16-17-19-------------------------------------18-16----18-16-15-| 
:---------19-16--16-17-19----------------------------------------------------------------| 
 
 
 
:------------------------------------------------------| 
:-----------15b--16b-----------------------------------| 
:-----------14b--15b--14p12---12\----------------------| 
:------------------------------------------------------| 
:------------------------------------------------------| 
:18-16-15\---------------------------------------------| 
 
 
 
solo 2         bar/\/\/\/   
bar/\/\/\/\/\/\/\/\/\/\/\/\/\/\/\/\/\/\/\/\/\/\/\/\ 
:-------------------------------------------------------------------------------------171920| 
:------------------------------------------------------------------------------171820-------| 
:7777777-7~~~--0--(0)-(0)-----0h2p0h2p0h2p0etc--0h7p0h7p0h7p0etc-0h2p0h2p0h2p0--------------| 
:-------------------------------------------------------------------------------------------| 
:-------------------------------------------------------------------------------------------| 
:-------------------------------------------------------------------------------------------| 
 
 
:171721171817-----------------------------------------------------------------| 
:-------------20-18171817--------------------------------18------18-18-18-----| 
:-------------------------191617191716------------161719----1919----------19\-| 
:--------------------------------------1917161719-----------------------------| 
:-----------------------------------------------------------------------------| 
:-----------------------------------------------------------------------------| 
 
                                                                       
play 2 times 
solo 3                                                                t         
t 
eb:-----------------------------------------------------------------|-------------------| 
Bb:-7810-7810-------------------------------------------------------|-10-6p3h6-10-6p3h6-| 
Gb:-----------10781087-------------------------5p3p0-7p5p0-7h9p7h9p7|-------------------| 
Db:--------------------1078108-7AH------9~~~------------------------|-------------------| 
Ab:--------------------------------7910-----------------------------|-------------------| 
Eb:-----------------------------------------------------------------|-------------------| 
 
 
 4 times  4 times 
 t        t       t       t   t     t     bar 
:--------|-------|-----------------------------| 
:--------|-------|10-9p6-10p9-10p9-10p9--------| 
:11-6p3--|10-6p3-|-----------------------------| 
:--------|-------|-----------------------------| 
:--------|-------|------------------------0----| 
:--------|-------|-----------------------------| 
 
 
 
solo 4 
 
:----------------------------------------------------------------------------------------| 
:----------------------------------------------------------------------------------------| 
:/11-10h12-10h11-10h12-10h11etc...--10h11p10-11h13p11-13h14p13-14h16p14-16h18p16-16h17p16| 
:----------------------------------------------------------------------------------------| 
:----------------------------------------------------------------------------------------| 
:----------------------------------------------------------------------------------------| 
 
 
                               play 4 times 
:---------------------------|17-17------------------------| 
:---------------------------|------18--------18-17-16-15--| 
:17h19p17-19h21h19-21h22p21-|---------17--19-19-18-17-16--| 
:---------------------------|-----------------------------| 
:---------------------------|-----------------------------| 
:---------------------------|-----------------------------|
  development and support by
dmitry ivanov