rock
 
|tablatures   |lyrics   |discussion forums   |more tabs @ XGuitar.com

Slayer tabs

In The Name Of God guitar tab

in the name of god (solo) 
album: diabolus in musica 
slayer 
 
tabbed by Rudy Guzman 
 
 
solo 1 
:2-5-2--5-2-525252-52-5-2-5-2-5-2-5-2-5-2-5-2-5-2-5-2-5| 
:------------------------------------------------------| 
:------------------------------------------------------| 
:------------------------------------------------------| 
:------------------------------------------------------| 
:------------------------------------------------------| 
 
 
 
:2-5-2-5-2-/7~~~~-7-8---------------------7-8--11-12-11~~~-| 
:---------------------10-8------------7-8------------------| 
:--------------------------9-8~~~-8-9----------------------| 
:----------------------------------------------------------| 
:----------------------------------------------------------| 
:----------------------------------------------------------| 
 
 
 
:-/14-17-14-17-14-17-14-17-14-17-14-17-14-17-14-18b-18b-18b-18b~~~\-| 
:-------------------------------------------------------------------| 
:-------------------------------------------------------------------| 
:-------------------------------------------------------------------| 
:-------------------------------------------------------------------| 
:-------------------------------------------------------------------| 
 
 
 
solo 2        bar    bar  bar bar/\/\/\  bar /\/\/\/\ /\/\/\ 
:----------*------------------5ah~-------------------------------| 
:----------*--------------5ah------------------------------------| 
:1/2-22-2~~*-(2~~~)----------------------0---(0)---(0)---(0)-----| 
:----------*-----------------------------------------------------| 
:-2-times--*---------0-------------------------------------------| 
:----------*-----------------------------------------------------| 
 
  bar/\/\/\/\/\ 
:--------------------21b--16b-| 
:-------------------------13b-| 
:-0---------------0-----------| 
:-----------------------------| 
:-----------------------------| 
:-----------------------------| 
 
 
:23b-16b-24b-16b-23b--19b-| 
:----13b-----13b------16b-| 
:-------------------------| 
:-------------------------| 
:-------------------------| 
:-------------------------| 
 
 
:-16b-16b-16b-|15b--15b--17-20-17-20-| 
:-19b-19b-19b-|18b--18b--------------| 
:-------------|----------------------| 
:-------------|----------------------| 
:-------------|--play 3 times--------| 
:-------------|----------------------| 
 
 
 
:-15b-15b--18b-18b-18b\--| 
:-18b-18b--21b-21b-21b\--| 
:------------------------| 
:------------------------| 
:------------------------| 
:------------------------| 
 
 
 
 
 
 
 
 
 
 
 
 
 
 
 
 
 
 
 
 
 
 
 
In The Name Of God 
by Slayer 
From Diabolus in Musica 
Tabbed by Chris Balch 
ss-3@slayerized.com 
 
This song is tuned down 1 1/2 steps 
 
I'll only use the three thickest strings 
because they're the only ones I use for 
this song 
 
.-Palm mute 
\-Slide down 
 
-------------------------------------------------------------------- 
 
|-------------------------------------------------------| 
|-5-2-2---2-3-4-2-5-2-2---2-3-4-2-5-2-2---2-3-4-2-5-2-2-| 
|-3-0-0---0-1-2-0-3-0-0---0-1-2-0-3-0-0---0-1-2-0-3-0-0-| 
. . . . . . . . . . . . . . . . . . . . . . . . 
 
|-----------------------------------------------| 
|-2-3-4-2-5-2-2---2-3-4-2-5-2-2---2-3-4-2-5-2-2-| 
|-0-1-2-0-3-0-0---0-1-2-0-3-0-0---0-1-2-0-3-0-0-| 
. . . . . . . . . . . . . . . . . . . . . 
 
|--------------------------| 
|-2-3-4-2-5-5-5-6-6-6\-3-3-| 
|-0-1-2-0-3-3-3-4-4-4\-1-1-| 
. . . . 
 
|------------------------------------------------------------------| 
|-5-2-2---2-3-4-2-5-2-2---2-3-4-2-5-2-2---2-3-4-2-5-5-5-6-6-6\-3-3-| 
|-3-0-0---0-1-2-0-3-0-0---0-1-2-0-3-0-0---0-1-2-0-3-3-3-4-4-4\-1-1-| 
. . . . . . . . . . . . . . . . . . . . . 
 
|-----------------------------------------------------------------| 
|-5-2-2---2-3-4-2-5-2-2---2-3-4-2-5-2-2---2-3-4-2-6-6-6-5-5-5-3-3-| 
|-3-0-0---0-1-2-0-3-0-0---0-1-2-0-3-0-0---0-1-2-0-4-4-4-3-3-3-1-1-| 
. . . . . . . . . . . . . . . . . . . . . 
 
|------------------------------------------------------------------| 
|-5-2-2---2-3-4-2-5-2-2---2-3-4-2-5-2-2---2-3-4-2-6-6-6\-3-3-3-3-3-| 
|-3-0-0---0-1-2-0-3-0-0---0-1-2-0-3-0-0---0-1-2-0-4-4-4\-1-1-1-1-1-| 
. . . . . . . . . . . . . . . . . . . . . 
 
|------------------------------------------------------------------| 
|-5-2-2---2-3-4-2-5-2-2---2-3-4-2-5-2-2---2-3-4-2-5-5-5\-3-3-3-3-3-| 
|-3-0-0---0-1-2-0-3-0-0---0-1-2-0-3-0-0---0-1-2-0-3-3-3\-1-1-1-1-1-| 
. . . . . . . . . . . . . . . . . . . . . 
 
|-------------------------------------------------------| 
|-2-------1--------------2-------1--------2-3-4---2-3-4-| Play 2 times 
|-0-------0--------------0-------0--------0-1-2---0-1-2-| 
 
|------------------------------------------------------------------| The 
solo is easy 
|-5-2-2-2-2---2-2-5-2-2-2-2---2-2-5-2-2-2-2---2-2-6-6-6-6\-3-3-3-3-| I like 
playing 
|-3-0-0-0-0---0-0-3-0-0-0-0---0-0-3-0-0-0-0---0-0-4-4-4-4\-1-1-1-1-| this 
though---2x 
. . . . . . . . . . . . . . . . . . . . . 
 
|------------------------------------------------------------------| 
|-5-2-2---2-3-4-2-5-2-2---2-3-4-2-5-2-2---2-3-4-2-5-5-5-6-6-6\-3-3-| 
|-3-0-0---0-1-2-0-3-0-0---0-1-2-0-3-0-0---0-1-2-0-3-3-3-4-4-4\-1-1-| 
. . . . . . . . . . . . . . . . . . . . . 
 
|-----------------------------------------------------------------| 
|-5-2-2---2-3-4-2-5-2-2---2-3-4-2-5-2-2---2-3-4-2-6-6-6-5-5-5-3-3-| 
|-3-0-0---0-1-2-0-3-0-0---0-1-2-0-3-0-0---0-1-2-0-4-4-4-3-3-3-1-1-| 
. . . . . . . . . . . . . . . . . . . . . 
 
|------------------------------------------------------------------| 
|-5-2-2---2-3-4-2-5-2-2---2-3-4-2-5-2-2---2-3-4-2-6-6-6\-3-3-3-3-3-| 
|-3-0-0---0-1-2-0-3-0-0---0-1-2-0-3-0-0---0-1-2-0-4-4-4\-1-1-1-1-1-| 
. . . . . . . . . . . . . . . . . . . . . 
 
|------------------------------------------------------------------| 
|-5-2-2---2-3-4-2-5-2-2---2-3-4-2-5-2-2---2-3-4-2-5-5-5\-3-3-3-3-3-| 
|-3-0-0---0-1-2-0-3-0-0---0-1-2-0-3-0-0---0-1-2-0-3-3-3\-1-1-1-1-1-| 
. . . . . . . . . . . . . . . . . . . . . 
 
|-------------------------------------------------------| 
|-2-------1--------------2-------1--------2-3-4---2-3-4-| Play 2 times 
|-0-------0--------------0-------0--------0-1-2---0-1-2-| 
 
|---------------------------------| |---------------------------------| 
|---------------------------------| Play 3x 
|-------------------------2-3-3-3-| 
|-0-4-3-0-0-4-1-0-0-3-1-0-0-4-1-0-| |-0-4-3-0-0-4-1-0-0-3-1-0-0-1-1-1-| 
. . . . . . . . . . . . . . . . . . . . . . . . . . . . 
 
Play this riff 1st & 3rd time Play this riff 2nd & 4th time 
|-------------------------------| |-------------------------------| 
|-5-2-2---2-4-5---2-4-5-8-7-7-7-| |-5-2-2---2-4-5---2-3-4-3-3-3-3-| 
|-3-0-0---0-2-3---0-2-3-6-5-5-5-| |-3-0-0---0-2-3---0-1-2-1-1-1-1-| 
 
|-----------------------------------------------------| 
|---5-5---5-5---6-6---6-5---5-5---5-5---6-6-6-6-6-6-6-| 
|-4-----4-----4-----4-----4-----4-----4-----4-4-4-4-4-| 
 
Play this riff 1st & 3rd time Play this riff 2nd & 4th time 
|-------------------------------| |-------------------------------| 
|-5-2-2---2-4-5---2-4-5-8-7-7-7-| |-5-2-2---2-4-5---2-3-4-3-3-3-3-| 
|-3-0-0---0-2-3---0-2-3-6-5-5-5-| |-3-0-0---0-2-3---0-1-2-1-1-1-1-| 
 
|-----------------------------------------------------| 
|---5-5---5-5---6-6---6-5---5-5---5-5---6-6-6-6-6-6-6-| 
|-4-----4-----4-----4-----4-----4-----4-----4-4-4-4-4-| 
 
Play this riff 1st & 3rd time Play this riff 2nd & 4th time 
|-------------------------------| |-------------------------------| 
|-5-2-2---2-4-5---2-4-5-8-7-7-7-| |-5-2-2---2-4-5---2-3-4-3-3-3-3-| 
|-3-0-0---0-2-3---0-2-3-6-5-5-5-| |-3-0-0---0-2-3---0-1-2-1-1-1-1-| 
 
|---------------------------------------------3-------| 
|---5-5---5-5---6-6---6-5---5-5---5-5---6-6-----5---5-| 
|-4-----4-----4-----4-----4-----4-----4-----4-----4---| 
 
|---------------------------------------------| 
|---5-5---5-5---6-6---6-5---5-5---5-5---6-6---| 
|-4-----4-----4-----4-----4-----4-----4-----4-| 
 
|----------------------------------| 
|-66666666666666666666666666666666-| 
|-44444444444444444444444444444444-| 
 
|-7\-------------| |-7\------------| 
|-5\-------------| Play 3x |-5\--2-3-3-3-3-| 
|-5\--0-0-----00-| |-5\--0-1-1-1-1-| 
. . .. 
 
|-7\-------------| |-7\------------| 
|-5\-------------| Play 3x |-5\--2-3-3-3-3-| 
|-5\--0-0-----00-| |-5\--0-1-1-1-1-| 
. . .. 
 
|-7\-------------| |-7\------------| 
|-5\-------------| Play 3x |-5\--2-3-3-3-3-| 
|-5\--0-0-----00-| |-5\--0-1-1-1-1-| 
. . .. 
 
|-7\-------------| |-7\------------| 
|-5\-------------| Play 3x |-5\--2-3-3-3-3-| 
|-5\--0-0-----00-| |-5\--0-1-1-1-1-| 
. . .. 
 
|-7\-------------| |-7\------------| 
|-5\----1--------| Play 3x |-5\--2-3-3-3-3-| 
|-5\--0-0-----00-| |-5\--0-1-1-1-1-| 
. .. 
 
|-7\-------------| |-7\------------| 
|-5\----1--------| Play 3x |-5\--2-3-3-3-3-| 
|-5\--0-0-----00-| |-5\--0-1-1-1-1-| 
. .. 
-------------------------------------------------------------------- 
 
That's the song 
 
Mail with corrections or anything else at 
 
ss-3@slayerized.com 
 
 
 
 
 
 
 
 
 
 
 
 
 
 
 
 
 
 
 
 
Artist: Slayer 
Album: Diabolus In Musica 
Song: In The Name Of God 
Tabbed By: Trevor Clements 
Email: Punkaas@aol.com 
 
Intro/Verse 
|------------------------------|--------------------|------------| 
|------------------------------|--------------------|------------| 
|------------------------------|--------------------|------------| 
|------------------------------|--------------------|------------| 
|-2-1-0--1-0-2-0-3-2-0-|-1-0-2-0-3-2-0-|-3-3-3-2-| 
|-2-1-0--1-0-2-0-3-2-0-|-1-0-2-0-3-2-0-|-3-3-3-2-|this last 
									  part 2x 
 
Then you play the 4th fret barre chord for a while. 
 
Then back to the verse. 
 
|---------------| 
|---------------| 
|---------------| 
|---------------| 
|-0-3-1-0-0-| 
|-0-3-1-0-0-|Play this for a while. 
 
Then play the first part with some variations and put some 
more space in between the chords. 
 
|-----------------| 
|-----------------| 
|-----------------| 
|-----------------| 
|--33-33-44---| 
|-0--0--0-------| 
 
I=92ll do the slow part later today.
  development and support by
dmitry ivanov