rock
 
|tablatures   |lyrics   |discussion forums   |more tabs @ XGuitar.com

Slayer tabs

I'm Gonna Be Your God guitar tab

SONG: IM GONNA BE YOUR GOD 
ARTIST: SLAYER 
ALBUM: UNDISPUTED ATTITUDE 
TABBED BY: DAVID LICHTER 
 
 
Tune down 1/2 step 
 
 
Intro:  4x 
Eb|----------------------------------------------| 
Bb|----------------------------------------------| 
Gb|----------------------------------------------| 
Db|-12-12-12-12--11-11-11-11--9-9-9-9-9-9--------| 
Ab|-10-10-10-10--9--9--9--9---7-7-7-7-7-7--------| 
Eb|-0--0--0--0---0--0--0--0---0-0-0-0-0-0--------| 
 
Verse:    
              
Palm Mute 
         I'm all jacked up  I want you here... 
Eb|----------------------------------------------| 
Bb|----------------------------------------------| 
Gb|----------------------------------------------| 
Db|----------------------------------------------| 
Ab|-5-5-5-5--4-4-4-4--2-2-2-2-2-2----------------| 
Eb|-3-3-3-3--2-2-2-2--0-0-0-0-0-0----------------| 
 
 
Chorus: 
         
     Now Im gonna be your god   Now Im gonna... 
Eb|----------------------------------------------| 
Bb|----------------------------------------------| 
Gb|----------------------------------------------| 
Db|-12-12-12-12--11-11-11-11--9-9-9-9-9-9--------| 
Ab|-10-10-10-10--9--9--9--9---7-7-7-7-7-7--------| 
Eb|-0--0--0--0---0--0--0--0---0-0-0-0-0-0--------| 
 
Eb|----------------------------------------------| 
Bb|----------------------------------------------| 
Gb|----------------------------------------------| 
Db|-12-9-7-4-5-5-5-5-5-5-5-----------------------| 
Ab|-10-7-5-2-3-3-3-3-3-3-3--2--------------------| 
Eb|-------------------------0--------------------| 
 
   4x 
Eb|----------------------------------------------| 
Bb|----------------------------------------------| 
Gb|----------------------------------------------| 
Db|----------------------------------------------| 
Ab|-5-5-5-5--4-4-4-4--2-2-2-2-2-2----------------| 
Eb|-3-3-3-3--2-2-2-2--0-0-0-0-0-0----------------| 
 
 
Verse 
 
 
Chorus 3x 
 
Eb|----------------------------------------------| 
Bb|----------------------------------------------| 
Gb|----------------------------------------------| 
Db|-12-9-7-4-5-5-5-5-5-5-5-----------------------| 
Ab|-10-7-5-2-3-3-3-3-3-3-3-----------------------| 
Eb|----------------------------------------------| 
 
 
Solo 
 
 
Verse  Only Bass   
 
 
Chorus 3x 
 
 
Eb|----------------------------------------------| 
Bb|----------------------------------------------| 
Gb|----------------------------------------------| 
Db|-12-9-7-4-5-5-5-5-5-5-5-----------------------| 
Ab|-10-7-5-2-3-3-3-3-3-3-3--2--------------------| 
Eb|-------------------------0--------------------| 
 
 
LYRICS: 
 
 
 
I`M GONNA BE YOUR GOD 
 
I'm all jacked up 
I want you here 
In my room I want you dear 
 
And now it's time to bury my face 
Between your legs 
With my tongue in that special place 
 
Now I'm gonna be your God 
Now I'm gonna be your God 
I'm gonna be your God 
 
Now I'm ready to close my eyes 
To feel that warm deep throat action 
Now I'm ready to make you cum 
And fuck like dogs all night long 
 
Now I'm gonna be your God 
Now I'm gonna be your God 
I'm gonna be your fucking God 
 
I'm all jacked up 
I want you here 
In my room 
I want you dear 
 
Now I'm ready to make you cum 
And fuck like dogs all night long 
 
I'm gonna be your God 
I'm gonna be your God 
I'm gonna be your fucking God 
 
 
 
Any comments, questions  E-mail at: lichter@ebox.tninet.se
  development and support by
dmitry ivanov