rock
 
|tablatures   |lyrics   |discussion forums   |more tabs @ XGuitar.com

Slayer tabs

I Hate You guitar tab

SONG: I Hate You 
ARTIST: Slayer 
ALBUM: Undisputed Attitude 
TABBED BY: David Lichter (lichter@ebox.tninet.se) 
 
Tuning: Standard 
 
Verse: 
 
E|-----------------------------------------------------------| 
B|-----------------------------------------------------------| 
G|-----------------------------------------------------------| 
D|-----------------------------------------------------------| 
A|-3-3-3-3-3-3-3--4-4-4-4-4-4-4--6-6-6--4-4-4--3-------------| 
E|-1-1-1-1-1-1-1--2-2-2-2-2-2-2--4-4-4--2-2-2--1-------------| 
 
 
Chorus: 
E|-------------------------------------------------------------------| 
B|--------------------------------------------4-4-4-4-4-4-4----------| 
G|-------------------------------------------------------------------| 
D|-3-3-3-3-3-3-3--8-8-8-8-8-8-8--6-6-6-6-6-6-6-----------------------| 
A|-1-1-1-1-1-1-1--6-6-6-6-6-6-6--4-4-4-4-4-4-4-----------------------| 
E|-------------------------------------------------------------------| 
 
 
I couldnīt figure out the solo. Itīs a very hard solo. 
 
 
Any comments mail me at: lichter@ebox.tninet.se
  development and support by
dmitry ivanov