rock
 
|tablatures   |lyrics   |discussion forums   |more tabs @ XGuitar.com

Slayer tabs

Here Comes The Pain guitar tab

here comes the pain: tabbed bij Ivol

drop tuning to Dadgbe

*=let it ring out

riff 1: intro and "everyone falls" part

e|------|
b|------|
g|------|
d|1110*-|
a|1110*-|
d|1110*-|


riff 2: 2nd part of intro and "tikking time-bomb with an immenent charge"

|---------------------|
|---------------------|
|---------------------|
|-0-0-0-3-000-3-0-0-3-|
|-0-0-0-3-000-3-0-0-3-|
|-0-0-0-3-000-3-0-0-3-|



riff 3:"i am, the hell on earth"


|
|-------------------------------|
|-------------------------------|
|-------------------------3-7-2-|
|-------------------------3-7-2-|
|-000-000-000-000-000-000-3-7-2-|



riff 4: "step aside for the nightmare" part


|---------------------------------|
|---------------------------------|
|---------------------------------|
|---------------------------------|
|---------------------------------|
|-222-222-222-222-222-222-222-222-|

riff 5: "here comes the pain"


|----------------------|
|----------------------|
|----------------------|
|-0-0-6-5-0-01-2-6-5-4-|
|-0-0-6-5-0-01-2-6-5-4-|
|-0-0-6-5-0-01-2-6-5-4-|

riff 5 2nd guitar:

|----------------------|
|----------------------|
|----------------------|
|-0-0-6-5-0-01-2-6-5-4-|
|----------------------|
|----------------------|

if you want the solo too, good luck with it, i havent got it.

for any comment or more shit mail me at bodyhammer5@hotmail.com
  development and support by
dmitry ivanov