rock
 
|tablatures   |lyrics   |discussion forums   |more tabs @ XGuitar.com

Slayer tabs

Hell Awaits guitar tab

From: mhmiki@lme.poli.usp.br (Morgan Hirosuke Miki) 
 
                     " HELL AWAITS "  
                       by SLAYER 
                    from HELL AWAITS 
 
Here is my version of hell awaits. If there's any mistakes, 
contact mhmiki@lme.poli.usp.br 
 
. palm mute 
x pick slide 
/ slide 
\ slide 
_ hammer-on or pull-off 
 
Intro 
 
(Welcome Back.....) 
 
   Guitar 1  (Hanneman) 
Eb----------------------- 
Bb----------------------- 
Gb----------------------- 
Db----------------------- 
Ab----------------------- 
Eb-0-0-0-0-0-0-0-0-0-0-0- 
   . . . . . . . . . . . 
 
 
   Guitar 2 (King) 
Eb---------------------------------------------------------- 
Eb---------------------------------------------------------- 
Gb--------------------------------9-10----------------3--2-- 
Db-2--------8----2-3--------8-\---9-10-----2-3--------3--2-- 
Ab-2--------8----2-3--------8-\---7--8--x--2-3--------1--0-- 
Eb-0----0-0-6----0-1----0-0-6-\---------x--0-1----0-0------- 
        . .             . .                       . . 
 
    Guitar 1 & 2 
Eb------------------------------------------------------------------------------ 
Bb------------------------------------------------------------------------------ 
Gb------------------------------------------------------------------------------ 
Db--------------------------------------10\9-10--------------------------------- 
Ab-2-------------------------------------8\7--8----------------------------8\7-8 
Eb-0-0-0-0-0-0-0-0-0-0-0-0-0-0-0-0-0-0-0-------0-0-0-0-0-0-0-0-0-0-0-0-0-0-6\5-6 
     . . . . . . . . . . . . . . . . . .       . . . . . . . . . . . . . . 
 
Eb--------------------------------------------------------------------------- 
Bb--------------------------------------------------------------------------- 
Gb--------------------------------------------------------------------------- 
Db---------------------10---7------------------------------------------------ 
Ab----------------------8---5---7/8---6---------------------------8\7/8-7-5-- 
Eb-0-0-0-0-0-0-0-0-0-0----------5/6---4--0-0-0-0-0-0-0-0-0-0-0-0--6\5/6-5-3-- 
   . . . . . . . . . .                   . . . . . . . . . . . .   
 
Eb-------------------------------------------------------------------------- 
Bb-------------------------------------------------------------------------- 
G--------------------------------------------------------------------------- 
Db------------------------------------10\9-10-------------------10-7-------- 
Ab-------------------------------------8\7--8-------------8\7-8--8-5-7/8-6-- 
Eb-0-0-0-0-0-0-0-0-0-0-0-0-0-0-0-0-0-0--------0-0-0-0-0-0-6\5-6------5/6-4-- 
   . . . . . . . . . . . . . . . . . .        . . . . . .  
 
 
Eb------------------------------------------------ 
Bb------------------------------------------------ 
Gb------------------------------------------------ 
Db-------------------------10\9/-8-9-7------------ 
Ab--------------------------8\7/-8-7-5-8\7/8-5-5-- 
Eb-0-0-0-0-0-0-0-0-0-0-0-0-------------6\5/6-5-3-- 
   . . . . . . . . . . . . 
 
    2 times 
Eb----------------------------------------------------------- 
Bb----------------------------------------------------------- 
Gb----------------------------------------------------------- 
Db----------------------------------------------------3---3-- 
Ab-2--------------------------------------------------1---1-- 
Eb-0-0-0-0---0-0-0---0-0-0---0-0-0---0-0-0---0-0-0-0--------- 
     . . .   . . .   . . .   . . .   . . .   . . . . 
 
 
   5 times 
Eb----------------------------------------     ------------------ 
Bb----------------------------------------     ------------------ 
Gb----------------------------------------     -3-4-------------- 
Db-2---------3---------4---------4-3-2-3--     -3-4-4-5-4-3-2-1-- 
Ab-2---------3---------4---------4-3-2-3--     -----4-5-4-3-2-1-- 
Eb---0-0-0-0---0-0-0-0---0-0-0-0----------     ------------------ 
     . . . .   . . . .   . . . . 
 
   2 times 
Eb---------------------------------------------------------------------------- 
Bb---------------------------------------------------------------------------- 
Gb---------------------------------------------------------------------------- 
Db-9-9-9-10-9-10-9-9-9-10-9-10-9-9-10-9-10-9-10-10-9-12-9-12-12-12-12-10-12-10 
Ab-7-7-7--8-7--9-7-7-7--8-7--8-7-7--8-7--8-7--8--8-7-10-7-10-10-10-10--8-10--8 
Eb---------------------------------------------------------------------------- 
 
 
Eb---------------------- 
Bb---------------------- 
Gb---------------------- 
Db-9--5-4-3-7----------- 
Ab-7--3-2-5-5--6-5-4-3-- 
Eb-------------4-3-2-1-- 
 
End Intro 
 
 
Eb-------------------------------------------------------------------------- 
Bb-------------------------------------------------------------------------- 
Gb-------------------------------------------------------------------------- 
Db-10\9--------------------------------10\9-10---------------------10\9----- 
Ab--8\7---------------------------------8\7--8----------------------8\7----- 
Eb------0-0-0-0-0-0-0-0-0-0-0-0-0-0-0-0--------0-0-0-0-0-0-0-0-0-0---------- 
        . . . . . . . . . . . . . . . .        . . . . . . . . . . 
 
Eb-------------------------- 
Bb-------------------------- 
Gb-------------------------- 
Db-----------------10\9-12-- 
Ab------------------8\7-10-- 
Eb-0-0-0-0-0-0-0-0---------- 
   . . . . . . . . 
 
 
  EXITING ON DAMNATIONS EDGE ..... 
Eb------------------------------------------ 
Bb------------------------------------------ 
Gb------------------------------------------ 
Db-----------------5/7-----------------7\5-- 
Ab-----------------3/5-----------------5\3-- 
Eb-3-3-3-3-3-3-3-3-----3-3-3-3-3-3-3-3------ 
   . . . . . . . .     . . . . . . . . 
 
   THE GATES OF HELL .....                          CRUCIFY THE ..... 
Eb------------------------------------------      ------------------------- 
Bb------------------------------------------      ------------------------- 
Gb------------------------------------------      ------------------------- 
Db------------------------------------------      ------------------------- 
Ab-2-2-2-2-2-2-2-2-2-2-2-2-5-5-3-3-0-0-3-3--      ------------------------- 
Eb------------------------------------------      -0-0-0-0-0-0-0-0-0-0-0-0- 
   . . . . . . . . . . . . . . . . . . . .         . . . . . . . . . . . . 
 
                          PRAY TO THE MOON ..... 
Eb------------------     ------------------------   
Bb------------------     ------------------------ 
Gb------------------     ------------------------ 
Db------------------     ------------------------ 
Ab-8_7-7_8-8_10-8_7-     -8_7-7_8-8_9-9_10------- 
Eb------------------     ------------------------ 
 
 
Eb-------------------------     --------------------------------- 
Bb-------------------------     --------------------------------- 
Gb-7-9-8-9-----------------     --------------------------------- 
Db-7-9-8-9-----------------     --------------------------------- 
Ab-5-7-6-7-----------------     -------------------------3-2-3-5- 
Eb---------0-0-0-0-0-0-0-0-     -2-2-2-2-2-2-2-2-2-2-2-2--------- 
           . . . . . . . .       . . . . . . . . . . . . 
 
after (HELL AWAITS) 2 time 
 
Eb--------------     ------------------     --------------------------------- 
Bb--------------     ------------------     --------------------------------- 
Gb--------------     ------------------     --------------------------------- 
Db--------------     ------------------     --------------------------------- 
Ab-6_7-7_8-8_10-     -6_7-7_8-8_9-9_10-     -------------------------3-2-3-5- 
Eb--------------     ------------------     -2-2-2-2-2-2-2-2-2-2-2-2--------- 
                                             . . . . . . . . . . . . 
 
Eb--------------------------- 
Bb--------------------------- 
Gb--------------------------- 
Db-7\5-7\5-7\5-7\5----------- 
Ab-5\3-5\3-5\3-5\3---5-----4- 
Eb-------------------3-----2- 
 
 
 
 
 
 
 
 
 
 
 
 
 
 
 
 
 
 
 
 
 
 
 
 
Slayer - Hell Awaits 
Taken from the official tab book 
Typed out by slayersnm@slayerized.com 
 
Tune guitars down 1/2 step - Eb 
 
\#/ - bend bar # of steps		1h2 - hammer-on 
/#\ - raise bar # of steps		2p1 - pull-off 
x\  - pick slide				3\1 - slide down to fret 
A.H - artificial harmonic		1/3 - slide up to fret 
/\/ - vibrate wide			*   - see note 
~~~ - vibrate				bar - depress bar slowly 
(0) - hold note				1b2 - bend up half step 
						1b3 - bend up full step 
 
Solo 1 - Hanneman 
                    vib. 
        bar         w/bar          bar     \1/ \1/ \1/\1.5/    bar 
|--------------------------A.H-------\---------------------------\--- 
|---------------------------0---------\-(0)------------------0----\-- 
|---------------------0~~-------------------------------------------- 
|-------\---------/12p0~~-------------------------------------------- 
|-0------\---(0)----------------------------------------------------- 
|-------------------------------------------------------------------- 
 
                     bar    \1/ /1\         bar 
|----------------------\--0------12~~----------------------------- 
|---------10---(10)-----\----------------------------------------- 
|-----7-9--------------------------------------------------------- 
|-9-9------------------------------------------------------------- 
|----------------------------------------0-----\------------------ 
|----------------------------------------0------\---/12----(12)\-- 
 
|--------------------------A.H----------------------------------- 
|-9-9-9-8b9---5-7-5---5-7---7b9--5-7-5---5-5-7-5----------------- 
|-------7b9---------6------------------6---------6p4--6p4-------- 
|----------------------------------------------------7----7-6p4-- 
|---------------------------------------------------------------- 
|---------------------------------------------------------------- 
 
|---------------------------------------------------------6---6-- 
|-------------------------------------------------6-8-6-8---8---- 
|-----------------------------------------5-7-5-7---------------- 
|---6p4---4-----------6p4---6p4---5-7-5-7------------------------ 
|-7-----7---6p4-(4)\------7-----7-------------------------------- 
|---------------------------------------------------------------- 
 
|-8b10-(8)b10--8-6-8-6-5-6-8-6-5------------------------------ 
|--------------------------------8-6-5-5---------------------- 
|----------------------------------------6-7--7b9---(7)b9--\-- 
|------------------------------------------------------------- 
|------------------------------------------------------------- 
|------------------------------------------------------------- 
 
|----------------------------------------------------------------- 
|-------------------------------------------------------12-12-15-- 
|----------------------------------------12----12-14-15----------- 
|----------------------12----12-14-12-14----14-------------------- 
|-------------14-12-14----14-------------------------------------- 
|-/x-/12\-x\------------------------------------------------------ 
 
|----------------------------------------------------------------- 
|-15-12----12-15-15-12----12-15-15-12----12-15-13-13-15\---------- 
|-------14-------------14-------------14-------------------17-17-- 
|----------------------------------------------------------------- 
|----------------------------------------------------------------- 
|----------------------------------------------------------------- 
 
|------------------------------------------------------------------ 
|-15-15-18-15-(15)\--18--A.H--18-15-15-15----18-15-18-18-15-15-18-- 
|------------------------17---------------17----------------------- 
|------------------------------------------------------------------ 
|------------------------------------------------------------------ 
|------------------------------------------------------------------ 
 
|--------------------------------20b22~~--(20)\-| 
|-15-18-15----15-15-18-15-15-16-----------------| 
|----------17-----------------------------------| 
|-----------------------------------------------| 
|-----------------------------------------------| 
|-----------------------------------------------| 
 
 
Solo 2 - King 
             \1/    fdbk 
|---------------------------------------- 
|-A.H------------------------------------ 
|--2//11~~~--------(11)---(11)/\--------- depress bar and vib. at the 
|-------------------------------\/\------ same time 
|----------------------------------\/\/-- 
|---------------------------------------- 
 
 (use bar)                 vib. 
 \2/ \3/   \1/   \2/   \3/ /\/\/\/ \6/ /\/ \3/ \2/ /\/ 
|---------------------------------------------------------- 
|-3p0h3p0h3p0h3p0h3p0h3p0h3p0h3p0h3p0h3p0h3p0h3p0h3p0h3h7/- 
|---------------------------------------------------------- 
|---------------------------------------------------------- 
|---------------------------------------------------------- 
|---------------------------------------------------------- 
 
                                    vib. 
                               \.5/ /\/\/\/\/\/\/\/\/\/\/\/\/ 
      /1\                       t     t     t     t     t 
|---------------------------/10-19p10-19p15-19p10-19p10-19p10- 
|------------------------------------------------------------- 
|-/15/22/\/\/\/\/\/--(22)\------------------------------------ 
|------------------------------------------------------------- 
|------------------------------------------------------------- 
|------------------------------------------------------------- 
 
 vib. 
 /\/\/\/\/\/\/\/\/\/\/\/\/\/\/\/ 
  t     t     t      t     t 
|-19p15-19p10-19p10--19p10-19p10/22/\/\/\/\/--19-22-22-19h21- 
|------------------------------------------------------------ 
|------------------------------------------------------------ 
|------------------------------------------------------------ 
|------------------------------------------------------------ 
|------------------------------------------------------------ 
 
|-19-19-22-22-21----19------------------------------------- 
|----------------22----22-21-19-21-21-19------------------- 
|----------------------------------------x-19-21-21-19-18-- 
|---------------------------------------------------------- 
|---------------------------------------------------------- 
|---------------------------------------------------------- 
 
|----------------------------------------------------------- 
|----------------------------------------t-----t-----t------ 
|-21-21-19-18-20-18-18-16----------------21p14-21p14-21p14-- 
|-------------------------19-19-17-16-17-------------------- 
|----------------------------------------------------------- 
|----------------------------------------------------------- 
 
|------------------------------------------------------------ 
|-t---------------------------------------------------------- 
|-21p14--18-18-21-21-19-20-21-21-21-18-18-19-19-16-18-18-15-- 
|------------------------------------------------------------ 
|------------------------------------------------------------ 
|------------------------------------------------------------ 
 
|------------------------------------------------------ 
|---------------------17-17b19-------(17)\------------- * depress strings 
|-16-15-16-15-16-x-x-------------------------*--------- against fretboard at 
|--------------------------------------------x\\x\\\\-- 12fr. w/edge of pick 
|--------------------------------------------x\\x\\\\-- and move towards nut. 
|--------------------------------------------x\\x\\\\-- 
 
 (use bar)       vib. 
 \3/     \5/     \/\/\/\/\/\/\/\/\/\/  \2/   \3/   \3/ 
|------------------------------------------------------- 
|-7p5p0-(0)h7p5p0h7p5p0h7p5p0h7p5p0h7p5p0h7p5p0h7p5p0h-- 
|------------------------------------------------------- 
|------------------------------------------------------- 
|------------------------------------------------------- 
|------------------------------------------------------- 
 
  vib.         vib.        vib. 
  \/\/\/\/ /1\ \/\/\/  \4/ /\/\/\/  /1\       /1.5\ \.5/ 
|----------------------------------------------------------------| 
|-7p5p0h7-(7)p5p0h7p5p0h7p5p0h7p5p0/24/\/\/\/\/------(24)\15\11--| 
|----------------------------------------------------------------| 
|----------------------------------------------------------------| 
|----------------------------------------------------------------| 
|----------------------------------------------------------------|
  development and support by
dmitry ivanov