rock
 
|tablatures   |lyrics   |discussion forums   |more tabs @ XGuitar.com

Slayer tabs

Haunting The Chapel guitar tab

Slayer 
Haunting the Chapel 
Haunting the Chapel 
Tabbed by Mike Kimball 
 
Fig. 1 
|---------------------------------------- 
|---------------------------------------- 
|------9/12-------9/11------------------- 
|------9/12-------9/11------5------------ 
|------7/10-------7/*9--------7-6-5------ 
|--0-0--------0-0-------0-0---------5-8-- 
 
|---------------------------------------- 
|---------------------------------------- 
|------9/12-------9/11--------------10--- 
|------9/12-------9/11------5-------10--- 
|------7/10-------7/*9--------7-6-5-*8--- 
|--0-0--------0-0-------0-0-------------- 
 
 
Fig. 2 
|----------------------------------- 
|----------------------------------- 
|----------------------------------- 
|----------------------------------- 
|--1-0-------------1-0-------3-2---- 
|------1-0-0-0-0-2-----1-0-4-----2-- 
 
|----------------------------------- 
|----------------------------------- 
|----------------------------4------ 
|----------------------------4------ 
|--1-0-------------1-0-------2------ 
|------1-0-0-0-0-2-----1-0-0-------- 
 
 
Fig. 3 
|------------------------------------------------------- 
|------------------------------------------------------- 
|------------------------------------------------------- 
|------------------------------3---2-------------------- 
|--------------4-3---------------4---3-------------4-3-- 
|--222222222222----222222222222--------222222222222----- 
   |__||__||__|    |__||__||__|        |__||__||__| 
 
                         (final ending, gtrs. 1 & 2) 
|-----------------------||-------------------- 
|-----------------------||-------------------- 
|------------------2----||-------------------- 
|--------------3---2----||-------------------- 
|----------------4---3--||--9----8---7---6---- 
|--222222222222---------||----10---9---8---7-- 
   |__||__||__| 
 
 
Fig. 4 
|----------------------------------||------------------- 
|----------------------------------||------------------- 
|----------------------------------||--8-7-6---9-8-7---- 
|----------------------------------||--------7-------8-- 
|------------------------6---6-7-6-||------------------- 
|--66666666666666667-6-7---7-------||------------------- 
 
 
Fig. 5 (same as fig 3 but final ending has gtr. 2 part:) 
|------------------- 
|------------------- 
|------------------- 
|--7---6---5---4---- 
|----9---8---7---6-- 
|------------------- 
 
 
Fig. 6 
gtr. 1 
|------------------------------------ 
|------------------------------------ 
|------------------------------------ 
|-------------------6-5-----8-7------ 
|--7-6-----9-8----------7-6-----9-8-- 
|------8-7-----10-9------------------ 
 
 
|------------------------------------ 
|------------------------------------ 
|------------------------------------ 
|------------------------------------ 
|------------------------------------ 
|--00000000111111113333333355556666-- 
   |__||__||__||__||__||__||__||__| 
 
 
Fig. 7 
(solo 1) 
|-------------------------------------- 
|-------------------------------------- 
|-------------------------------------- 
|--------------9-10-------------10-12-- 
|--------------7-*8-------------*8-10-- 
|--777777777777-----777777777777------- 
   |__||__||__|     |__||__||__| 
 
|---------------------------------------- 
|---------------------------------------- 
|---------------------------------------- 
|--------------12-13---------13-12-11-10- 
|--------------10-11---------11-10-*9-*8- 
|--777777777777------77777777------------ 
   |__||__||__|      |__||__| 
 
 
Fig. 8 
(solo 2) 
|----------------------------------- 
|----------------------------------- 
|----------------------------------- 
|----------------------------------- 
|--------------2-1-------------4-3-- 
|--000000000000----000000000000----- 
   |__||__||__|    |__||__||__| 
 
|----------------------------------- 
|----------------------------------- 
|----------------------------------- 
|----------------------------------- 
|--------------6-5---------3--5--6-- 
|--000000000000----000000001--3--4-- 
   |__||__||__|    |__||__| 
 
Fig. 9 
(gtr. 1) 
|------------------------------------------- 
|------------------------------------------- 
|------------------------------------------- 
|------------------------------------------- 
|----8-7---8-7---7-6---6-7-6---6-5---5-6-5-- 
|--9-----9-----8-----8-------7-----7-------- 
 
(gtr. 2) 
|------------------------------------------- 
|------------------------------------------- 
|------------------------------------------- 
|----------------------------8---7---------- 
|--2-------------------------6---5---------- 
|--0---------------------------------------- 
 
(gtr. 1) 
|------------------------------------------------- 
|------------------------------------------------- 
|------------------------------------------------- 
|------------------------------------------------- 
|----5-4---5-4---4-3---3-4-3---3-2---2-3-2---2-1-- 
|--6-----6-----5-----5-------4-----4-------3------ 
 
 
|------------------------------------------------- 
|------------------------------------------------- 
|------------------------------------------------- 
|----7-6---------6-5-----------5-4-----------4-3-- 
|----5-4---------4-3-----------3-2-----------2-1-- 
|------------------------------------------------- 
 
 
(end, gtrs. 1 & 2) 
|-------------- 
|-------------- 
|--4--3-------- 
|--4--3--5--2-- 
|--2--1--5--2-- 
|--------3--0-- 
 
 
Tabbed by Mike Kimball 
fulfillment@geocities.com
  development and support by
dmitry ivanov