rock
 
|tablatures   |lyrics   |discussion forums   |more tabs @ XGuitar.com

Slayer tabs

Hardening Of The Arteries guitar tab

HARDENING OF THE ARTERIES 
SLAYER 
TABBED BY: JASON MCNEIL 
(k.mcneil@ns.sympatico.ca) 
 
THE DIABOLIC MUSIC PAGE 
(www.geocities.com/Tokyo/Bridge/3975) 
 
NOTE:IF YOU WANT TO PUT THIS TAB ON MY PAGE ASK ME FIRST. 
 
 
NOTE: TUNING: HALF A STEP DOWN. 
 
I HATE TO RELEASE AN UNFINISHED TAB, BUT MY PAGE WILL BE THE ONLY PAGE TO 
EVEN HAVE SOME IT DONE.  IF ANYONE CAN COMPLETE IT SEND IT IN. 
IT IS HARD TO HEAR WHAT THEY ARE PLAYING WHEN TOM IS SINGING.  MOST OF IT 
IS HERE THOUGH, IT IS A PRETTY INSANE SONG. 
 
 
 
 
Riff 1(Guitar 1)                                         (Guitar 2) 
[-------------------------------------------------------][--------] 
[-------------------------------------------------------][--------] 
[-------------------------------------------------------][--------] 
[-------------------------------------------------------][---2----] 
[-0-2-0-2----------------------------------------0-2-0-2][---2----] 
[---------0-0-0-0-0-7-0-0-0-0-0-6-0-0-0-0-0-5-00-0-0-0-0][---0----] 
          . . . . .   . . . . .   . . . . .   .. 
 
 
THe verse I can't hear what they are playing is playing. 
 
 
 
Chorus(Sadistic minds.....) 
[-------------------------------][-----------------------------] 
[-------------------------------][-----------------------------] 
[-------------------------------][-----------------------------] 
[-------3----1---4-----3--------][-------7-----8----5----5-----] 
[-------------------------------][-----------------------------] 
[-11111--1111--11--111----------][-555555--555---55---55-------] 
 
 
 
Riff 3 (Decripit breath......) 
[-------------------------------] 
[-------------------------------] 
[-------------------------------] 
[------4--1-------1-3--4--------] 
[----------------------4--------] 
[-11111------111-------2--------] 
 
 
Riff 3 (1st Lead Rhythm) 
[--------------------------------------] 
[--------------------------------------] 
[--------------------------------------] 
[--------------------------------------] 
[--------------------------------------] 
[000000000000--3--000000000000---3-----] 
 
 
Riff 4 (2nd Lead Rhythm) 
[-------------------------------] 
[-------------------------------] 
[-------------------------------] 
[-------------------------------] 
[-------------------------------] 
[-22222222222-3-222222222222-3--] 
 
 
Bridge(Guitar 1) 
[----------------------------------------------------] 
[----------------------------------------------------] 
[-----------------------------9-10--------------3-2--] 
[-5-4-3-2----8--2-3------8\---9-10-----2-3------3-2--] 
[-5-4-3-2----8--2-3------8\---7--8--x--2-3------1-0--] 
[-3-2-1-0----6--0-1--0-0-6\---------x--0-1--0-0------] 
                     . .                    . . 
 
(Guitar 2) 
[--------------------------------] 
[--------------------------------] 
[--------------------------------] 
[--------------------------------] 
[--------------------------------] 
[-0-0-0-0-0-0-0-0-0-0-0-0-0-0----] 
  . . . . . . . . . . . . . . 
 
 
Riff 5 (play till end) 
[--------------------------------] 
[--------------------------------] 
[--------------------------------] 
[--------------------------------] 
[-2------------------------------] 
[-0-0-0-0-0-0-0-0-0-0-00-0-0-0-0-]
  development and support by
dmitry ivanov